Oops, an error
Loading. Please wait.

Me And My Dad Built Her tab

2,312 views 1 this week
1 commentread comment
1 2 3 4 5
1 last vote to show rating
add to favorites
×
Save as Personal and add changes to this tab that will be seen only by you. Learn more ›
×
You can save this tab as Personal to edit and correct it or add notes. All changes will be seen only by you. Learn more »
launch autoscroll
font size
0
reset
how to read this tab
guitar tuner
edit
Autoscroll
slow
fast
+/-
esc
set tempo
stop
yeah
Look Mexico- Me And My Dad Built Her
tabbed by-Rene.


Intro/Verse
|---------2--0---------------|
|---------0--0---------------|
|---------3--3---------------|
|----------------------------|
|--2h3-3---------------------|
|----------------------------| x 2

|---------2--0---------------|
|---------0--0---------------|
|---------3--3---------------|
|----------------------------|
|--0h2-2---------------------|
|----------------------------| then..

|---------2--3--2h3----------|
|---------0--0------3--------|
|---------3--3---------------|
|----------------------------|
|--0h2-2---------------------|
|----------------------------|

you do all of that twice then,

*distortion part*
|--------------------0-------|
|--------------------0-------|
|--4--5--5---5--4----0-------|
|--4--5--5---5--4----2-------|
|--2--3--3---3--2----2-------|
|--------------------0-------|

then back to Verse twice,
then *distortion part*

then chorus

|-------10----10----------10----10-----------0--------------0--|
|-10/12----12----12-10h12----12----12p10-----10--10-10/8----8--|
|----------------------------------------12--------------7-----|
|--------------------------------------------------------------|
|--------------------------------------------------------------|
|--------------------------------------------------------------|
and theres another guitar that i hear but im not so sure about but it sounds like hes 
these chords
|----0----0----3---------------|
|----1----1----3---------------|
|----2----0----0---------------|
|--3-3----2----0---------------|
|-------3------2---------------|
|-----------3--3---------------|
i dont know how to describe the strumming so yeah figure it out? idk sorry.

Bridge thing.

|-------------------------------|
|-------------------------------|
|--4p0---------4-4p0--------4-4-|
|------5p0--2--------5p0--2-----|
|-------------------------------|
|-------------------------------|

ill figure the rest out its kind of the same but yeah/
hope you like it.

            
            
Suggest correction
Creating personal tab
Creating personal tab
You can edit any tab online and save it as your Personal.

You can edit, replace or remove any tab part or add personal notes – all changes will be seen only by you.

Personal tabs can be accessed anytime from any device, even offline.
Learn more »
Give kudos to tab author, rate the tab!
1 2 3 4 5
comments
print report bad tab
1 comment total.
0 reply
papat911 10 Nov 17, 2013 05:20 PM

Look Mexico rules, I used to see them when they first started near Tampa. Tbanks!

guest
You may want to rate the tab now too:
select rating
Wanna post a correction for this tab? Suggest correction