Oops, an error
Loading. Please wait.

La Belle Fleur Sauvage tab

version 2
version 2

Whole song

  • Tab of the album version of "La Belle Fleur Sauvag... Show more
490 views 15 this week
no commentswrite comment
1 2 3 4 5
2 more votes to show rating
add to favorites
×
Save as Personal and add changes to this tab that will be seen only by you. Learn more ›
×
You can save this tab as Personal to edit and correct it or add notes. All changes will be seen only by you. Learn more »
launch autoscroll
font size
0
reset
how to read this tab
guitar tuner
edit
Autoscroll
slow
fast
+/-
esc
set tempo
stop
About this tab version
Tab of the album version of "La Belle Fleur Sauvage" from Strange Trails. Fairly simple song with only four chords played throughout. The little lead played features a Chorus-like effect. Cheers. Was this info helpful? Yes No
Capo 1

Same picking pattern for all chords, alternate the E and A bass notes:
 
                E               A               C#m             F#m
e|------------------------------------------------------------------------|
B|------0-0-----0-0-----2-2-----2-2------5-5-----5-------2-2-----2-2------|
G|------1-1-----1-1-----2-2-----2-2------6-6-----6-------2-2-----2-2------|
D|------2-2-----2-2-----2-2-----2-2------6-6-----6-------4-4-----4-4------|
A|------2-2--2--2-2-----0-0--0--0-0------4-4--4--4-------4-4--4--4-4------|
E|---0---------------0----------------4---------------2-------------------|

[Intro]
e|-------------------------------|                
B|------0-0-----0-0--------------|   
G|------1-1-----1-1-----X8-------|                
D|------2-2-----2-2--------------|               
A|------2-2--2--2-2--------------|                
E|---0---------------------------| 

[Verse]
           
E                                A     E
What you're looking for won't be found easily
E                             A     E
It grows upon the mountain in a sacred place
E                                A            E
Up beyond the clouds, in ancient ground, so they say
E                               A       E
And many men have died trekking up thataway

C#m           E
Oooh        Oooh 
C#m           E
Oooh        Oooh
C#m           E
Oooh        Oooh

A    E     A    E
Ooh  Ooh   Ooh  Ooh

     E               F#m     E                     F#m       E
e|------------------------------------------------------------------------------|
B|------------------------------------------------------------------------------|
G|------------------------------------------------------------------------------|
D|-------22---------------------------------------------------------------------|
A|---2-4----42---2--------------------------------------------------------------|
E|-------------4---4-2-2h4p2-0----------------------2--2h4p2-0------------------|

     E               F#m     E                     F#m       E
e|------------------------------------------------------------------------------|
B|------------------------------------------------------------------------------|
G|------------------------------------------------------------------------------|
D|-------22---------------------------------------------------------------------|
A|---2-4----42---2--------------------------------------------------------------|
E|-------------4---4-2-2h4p2-0----------------------2--2h4p2-0------------------|

E                           A                     E
Once he's gazed upon her, a man is forever changed
E                                    A                  E
The bravest men return with darkened hearts and phantom pain
E                        A                 E
Ages come and go but her life goes on the same
E                                     A                  E
She lives to see the sun and feel the wind and drink the rain

Bass Riff

e|-------------------------------------------------|
B|-------------------------------------------------|
G|-------------------------------------------------|
D|-------------------------------------------------|
A|-------------------------------------------------|
E|-----000-2-2b0-------------000-------------------|

C#m                             E
Her colors change to mark the passing of the days
C#m                             E
No Earthly sight can match the beauty she displays
C#m                       E   
And when I die I want her lying by my side
A     E
In my grave
A     E
In my grave  Ooooohh


         E           F#m        E                     F#m        E
e|------------------------------------------------------------------------------|
B|------(0)----------(2)-------(0)--------------------(2)-------(0)-------------|
G|------(1)----------(2)-------(1)--------------------(2)-------(1)-------------|
D|-------2-2---------(4)-------(2)--------------------(4)-------(2)-------------|
A|---2-4----4-2--2---(4)-------(2)--------------------(4)-------(2)-------------|
E|-------------4---4--2--2h4p2--0----------------------2--2h4p2--0--------------|

                               E                                  F#m  E   
                               I'd give it all to love that girl  Oooh

         E           F#m        E                     F#m        E
e|------------------------------------------------------------------------------|
B|------(0)----------(2)-------(0)--------------------(2)-------(0)-------------|
G|------(1)----------(2)-------(1)--------------------(2)-------(1)-------------|
D|-------2-2---------(4)-------(2)--------------------(4)-------(2)-------------|
A|---2-4----4-2--2---(4)-------(2)--------------------(4)-------(2)-------------|
E|-------------4---4--2--2h4p2--0----------------------2--2h4p2--0--------------|

                               E                                   F#m  E
                               I'll be the one to pluck that fleur

C#m                                E               
I  meant to find the place where all good things begin
C#m                               E              
To smell her scent and watch her dancing in the wind
C#m                        E           
And when I die I want her lying by my side
A     E
In my grave
A     E
In my grave

[Break]
Play chords E to A with alternate plucking of bass notes on E and A strings.

                                    I'd give it all to love that girl
         E           F#m        E                     F#m        E
e|------------------------------------------------------------------------------|
B|------(0)----------(2)-------(0)--------------------(2)-------(0)-------------|
G|------(1)----------(2)-------(1)--------------------(2)-------(1)-------------|
D|-------2-2---------(4)-------(2)--------------------(4)-------(2)-------------|
A|---2-4----4-2--2---(4)-------(2)--------------------(4)-------(2)-------------|
E|-------------4---4--2--2h4p2--0----------------------2--2h4p2--0--------------|


                                   I'll be the one to pluck that fleur
         E           F#m        E                     F#m        E
e|------------------------------------------------------------------------------|
B|------(0)----------(2)-------(0)--------------------(2)-------(0)-------------|
G|------(1)----------(2)-------(1)--------------------(2)-------(1)-------------|
D|-------2-2---------(4)-------(2)--------------------(4)-------(2)-------------|
A|---2-4----4-2--2---(4)-------(2)--------------------(4)-------(2)-------------|
E|-------------4---4--2--2h4p2--0----------------------2--2h4p2--0--------------|


                                  I'd give it all to love that girl
         E           F#m        E                     F#m        E
e|------------------------------------------------------------------------------|
B|------(0)----------(2)-------(0)--------------------(2)-------(0)-------------|
G|------(1)----------(2)-------(1)--------------------(2)-------(1)-------------|
D|-------2-2---------(4)-------(2)--------------------(4)-------(2)-------------|
A|---2-4----4-2--2---(4)-------(2)--------------------(4)-------(2)-------------|
E|-------------4---4--2--2h4p2--0----------------------2--2h4p2--0--------------|


                                  I'll be the one to pluck that fleur
         E           F#m        E                     F#m        E
e|------------------------------------------------------------------------------|
B|------(0)----------(2)-------(0)--------------------(2)-------(0)-------------|
G|------(1)----------(2)-------(1)--------------------(2)-------(1)-------------|
D|-------2-2---------(4)-------(2)--------------------(4)-------(2)-------------|
A|---2-4----4-2--2---(4)-------(2)--------------------(4)-------(2)-------------|
E|-------------4---4--2--2h4p2--0----------------------2--2h4p2--0--------------|



************************************

| h    Hammer-on
| p    Pull-off
| b    Bend
| (n)  Ghost note
 

************************************

            
            
Suggest correction
Creating personal tab
Creating personal tab
You can edit any tab online and save it as your Personal.

You can edit, replace or remove any tab part or add personal notes – all changes will be seen only by you.

Personal tabs can be accessed anytime from any device, even offline.
Learn more »
Give kudos to tab author, rate the tab!
1 2 3 4 5
comments
print report bad tab
guest
You may want to rate the tab now too:
select rating
Wanna post a correction for this tab? Suggest correction