Oops, an error
Loading. Please wait.

Evilyn tab

version 1
version 1

Whole song

Interactive

by Lordi
1,903 views 3 this week
no commentswrite comment
1 2 3 4 5
2 more votes to show rating
add to favorites
×
Save as Personal and add changes to this tab that will be seen only by you. Learn more ›
×
You can save this tab as Personal to edit and correct it or add notes. All changes will be seen only by you. Learn more »
launch autoscroll
font size
0
reset
how to read this tab
guitar tuner
edit
Autoscroll
slow
fast
+/-
esc
set tempo
stop
Author
Song: Evilyn
Band: Lordi
Tabbed by: unspeakable.elvis@gmail.com

Legend:
.       palm mute
h       hammer on
p       pull off
/       slide up to note
\       slide down from note
16\12   slide from 16th fret to 12th fret
7b9     bend 7th fret major second up
9r7     release previous bend
x       dead note
~       vibrato
7b9r7p5 bend 7th fret up, then release bend and pull off to 5th fret.


Standard tuning


Intro / First verse
~~~~~~~~~~~~~~~~~~~

|-3-----------------------|-3-----------------------|
|-3-----------------------|-4-----------------------| Piano chords 
|-3-----------------------|-3-----------------------| tabbed for guitar
|-------------------------|-------------------------| 
|-------------------------|-6-----------------6-8---|
|-3-----------------------|-------------------------|
|                         |                         |
|-------------------------|-------------------------|
|-------8-----------------|-------8-----------------| Guitar 1 plays this
|----7-----7--------------|----8-----8--------------|
|-5-----------------------|-5-----------------------|
|-------------------------|-------------------------|
|-------------------------|-------------------------|



Bridge
~~~~~~
      "she knows it..."         "it ain't just a..."
|-------------------------|-------------------------|
|-------------------------|-------------------------|
|-------------------------|-------------------------|
|-------------------------|-------------------------|
|-6--6--6--6--5--5--6-----|-------6-----5-----6-----|
|-------------------------|-6--6-----6-----6--------|
  .  .     .     .          .  .     .     .

 "fantasy..."
|-------------------------|-------------------------|
|-------------------------|-------------------------|
|-------------------------|-------------------------|
|-------------------------|-------1-----------1-----|
|-------6-----5-----6-----|-------------------------|
|-4--4-----4-----4--------|-1--1-----1--3--3-----3--|
  .  .     .     .          .  .     .  .  .     . 

      "deep in her...           the killer..."
|-------------------------|-------------------------|
|-------------------------|-------------------------|
|-------------------------|-------------------------|
|-------------------------|-------------------------|
|-6--6--6--6--5--5--6-----|-------6-----5-----6-----|
|-------------------------|-6--6-----6-----6--------|
  .  .     .     .          .  .     .     .

"roams..."
|-------------------------|-------------------------|
|-------------------------|-------------------------|
|-7-----------------------|-------------------------|
|-7-----------------------|-------------------------|
|-5-----------------------|-------------------------|
|-------------------------|-------------------------|


Chorus
~~~~~~
 "evilyn you've gone too far..."
|---------------------------------|-11--------------11------13------|
|-11----------13--15--------------|-13--------------11------13------| Two guitars 
|-12----------14--15--------------|---------------------------------| play these
|---------------------------------|---------------------------------| high harmonics
|---------------------------------|---------------------------------|
|---------------------------------|---------------------------------|
|                                 |                                 |
|---------------------------------|---------------------------------|
|---------------------------------|---------------------------------|
|---------------------------------|-5---------------8-------10------|
|-5-----------7---8---------------|-5---------------8-------10------| Rhythm
|-5-----------7---8---------------|-3---------------6-------8-------|
|-3-----------5---6---------------|---------------------------------|



 "there's no room in heaven anymore..."
|---------------------------------|-11------------------------------|
|---------------------------------|------11--8----------------------| Fourth guitar
|---------------------------------|-------------10--8---7-----------| plays this short
|---------------------------------|-------------------------10--7---| lead bit
|---------------------------------|---------------------------------|
|---------------------------------|---------------------------------|
|                                 |                                 |
|-----------------10--------------|-11----------10--11------10------|
|-11--------------11--------------|-11----------11--13------13------|
|-12------------------------------|---------------------------------| Harmonics
|---------------------------------|---------------------------------|
|---------------------------------|---------------------------------|
|---------------------------------|---------------------------------|
                                  |                                 |
|---------------------------------|---------------------------------|
|---------------------------------|---------------------------------|
|---------------------------------|-8-----------7---5-------7-------|
|-5---------------8---------------|-8-----------7---5-------7-------| Rhythm
|-5---------------8---------------|-6-----------5---3-------5-------|
|-3---------------6---------------|---------------------------------|
|                                 |                                 |
|---------------------------------|---------------------------------|
|---------------------------------|---------------------------------|
|---------------------------------|-6-6-6-6-6-6-5-5-3-3-3-3-5-5-5-5-| Bass
|-3-3-3-3-3-3-3-3-1-1-1-1-1-1-1-1-|---------------------------------|
                  ^Bass plays F here while guitar plays Bb5 chord


 "evilyn you chose to fall..."
|---------------------------------|---------------------------------|
|---------------------------------|---------------------------------|
|---------------------------------|---------------------------------| Lead
|-8~~~----------------------------|---------------------------------|
|---------------------------------|---------------------------------|
|---------------------------------|---------------------------------|
|                                 |                                 |
|---------------------------------|-11--------------11------13------|
|-11---------13---15--------------|-13--------------11------13------|
|-12---------14---15--------------|---------------------------------| Harmonics
|---------------------------------|---------------------------------|
|---------------------------------|---------------------------------|
|---------------------------------|---------------------------------|
|                                 |                                 | 
|---------------------------------|---------------------------------|
|---------------------------------|---------------------------------|
|---------------------------------|-5---------------8-------10------|
|-5-----------7---8---------------|-5---------------8-------10------| Rhythm
|-5-----------7---8---------------|-3---------------6-------8-------|
|-3-----------5---6---------------|---------------------------------|



 "evilyn you've gone too far..."
|-----------------10--------------|-11----13--------------11--------|
|-11--------------11--------------|-11----13--------11----13--------|
|-12------------------------------|-----------------12--------------| Harmonics
|---------------------------------|---------------------------------|
|---------------------------------|---------------------------------|
|---------------------------------|---------------------------------|
|                                 |                                 |
|---------------------------------|---------------------------------|
|---------------------------------|---------------------------------|
|---------------------------------|-8-----10--------------5---------|
|-5---------------8---------------|-8-----10--------5-----5---------| Rhythm
|-5---------------8---------------|-6-----8---------5-----3---------|
|-3---------------6---------------|-----------------3---------------|
                                  


"'cause your heart is made in hell..."
|-11----13--------------11--------|-11----13------------------------|
|-11----13--------11----13--------|-11----13------------------------|
|-----------------12--------------|---------------------------------| Harmonics
|---------------------------------|---------------------------------|
|---------------------------------|---------------------------------|
|---------------------------------|---------------------------------|
|                                 |                                 |
|---------------------------------|---------------------------------|
|---------------------------------|---------------------------------|
|-8-----10--------------5---------|-8-----10------------------------|
|-8-----10--------5-----5---------|-8-----10------------------------| Rhythm
|-6-----8---------5-----3---------|-6-----8-------------------------|
|-----------------3---------------|---------------------------------|




Second Verse
~~~~~~~~~~~~

|---------------------------------|---------------------------------|
|---------------------------------|---------------------------------|
|---------------------3-3-2-2-----|---------------------3-3-2-2-----| Play x2
|-5-5---3-5-5---3-5-5---------3-3-|-5-5---3-5-5---3-5-5---------3-3-|
|---------------------------------|---------------------------------|
|---------------------------------|---------------------------------|
  . .   . . .   . . . . . . . . .   . .   . . .   . . . . . . . . .

Then to Bridge, Chorus, after which:

Solo
~~~~

These lead bits are played over Second Verse riff.
|-----------------------------------------|-----------------------------------------|
|-10h11-----------------------------------|-----------------------------10-----11---|
|--------10h12----------------------------|--------------------/12------------------|
|----------------12h13--10h12----8---10---|-5~~-------------------------------------|
|-----------------------------------------|-----------------------------------------|
|-----------------------------------------|-----------------------------------------|



|-----------------------------------------|-----------------------------------------|
|-10h11-----------------------------------|--------16---------------16\15-----------|
|--------10h12----------------------------|-----------------------------------------|
|----------------12h13--10h12----8---10---|-13------------------13--------12---10---|
|-----------------------------------------|-----------------------------------------|
|-----------------------------------------|-----------------------------------------|


  Rhythm guitar moves to Bridge here. Two guitars playing in harmony again, Guitar 1 plays
  melody and guitar 2 plays harmony one third higher.
|-----------------------------------------|-----------------------------------------|
|-----------------------------------------|-----------------------------------------|
|-12-10---------12-10-12-10---------12-10-|-12-10-13-------12-13-15--13---12---13---| Guitar 2
|-------13------------------13------------|-----------------------------------------|
|-----------------------------------------|-----------------------------------------|
|-----------------------------------------|-----------------------------------------|
|                                         |                                         |
|-----------------------------------------|-----------------------------------------|
|-----------------------------------------|-----------------------------------------|
|-----------------------------------------|-------10----------10-12--10--------10---| Guitar 1
|-13-12-10------13-12-13-12-10------13-12-|-13-12----------13-------------13--------|
|-----------------------------------------|-----------------------------------------|
|-----------------------------------------|-----------------------------------------|



|-----------------------------------------|
|-----------------------------------------|
|-12------------12-13-15----13p12h13------| Guitar 2
|-----------------------------------------|
|-----------------------------------------|
|-----------------------------------------|
|                                         |
|-----------------------------------------|
|-----------------------------------------|
|------------------12-15----13p12h13------| Guitar 1
|-13------------13------------------------|
|-----------------------------------------|
|-----------------------------------------|



  /--3--\   /--3--\   /--3--\   /--3--\   /--3--\   /--3--\                       
|------------------------------------------------------------15-------17------18--|
|---------------------------------------------------15-16-18----------------------|
|-------------------------------14-15-17--14-15-17--------------------------------| Guitar 2
|-----------13-15-17--13-15-17----------------------------------------------------|
|-13-15-17------------------------------------------------------------------------|
|---------------------------------------------------------------------------------|
|                                                                                 |
| /--3--\   /--3--\   /--3--\   /--3--\   /--3--\   /--3--\                       |
|------------------------------------------------------------11-------13------15--|
|---------------------------------------------------11-13-15----------------------|
|-------------------------------10-12-14--10-12-14--------------------------------| Guitar 1
|-----------10-12-13--10-12-13----------------------------------------------------|
|-10-12-13------------------------------------------------------------------------|
|---------------------------------------------------------------------------------|
|                                                                                 |
|---------------------------------------------------------------------------------|
|---------------------------------------------------------------------------------|
|---------------------------------------------------------------------------------| Rhythm
|-7----7----7----7----7----7----7----7----7----7----7----7----7-------7-------7---|
|-5----5----5----5----5----5----5----5----5----5----5----5----5-------5-------5---|
|---------------------------------------------------------------------------------|
  .    .    .    .    .    .    .    .    .    .    .    .    .       .       .



|-18b20---20r18~~~~-----------------------|
|-----------------------------------------|
|-----------------------------------------| Guitar 2
|-----------------------------------------|
|-----------------------------------------|
|-----------------------------------------|
|                                         |
|                                         |
|-15b17---17r15~~~~-----------------------|
|-----------------------------------------|
|-----------------------------------------| Guitar 1
|-----------------------------------------|
|-----------------------------------------|
|-----------------------------------------|

Play Chorus once, then


Final Chorus:
~~~~~~~~~~~~

Double time. Harmonics are the same as normal Chorus.

|---------------------------------|---------------------------------|
|---------------------------------|---------------------------------|
|---------------------------------|-5-----5-----5-5-----8-8-----10--|
|-5-----5-----7---8-----8-----8---|-5-----5-----5-5-----8-8-----10--|
|-5-----5-----7---8-----8-----8---|-3-3-3-3-3-3-3-3-6-6-6-6-8-8-8---|
|-3-3-3-3-3-3-5-5-6-6-6-6-6-6-6-6-|---------------------------------|
    . .   . .   .   . .   . .   .     . .   . .     . .     . .  


|---------------------------------|---------------------------------|
|---------------------------------|-------------------------3-3-3-3-|
|---------------------------------|-8-----8-----8-7---5-5---2-2-0-2-|
|-5-----5-----5---8-----8-----8---|-8-----8-----8-7---5-5-0-0-0-0-0-|
|-5-----5-----5---8-----8-----8---|-6-6-6-6-6-6-6-5-3-3-3-----------|
|-3-3-3-3-3-3-3-3-6-6-6-6-6-6-6-6-|---------------------------------|
    . .   . .   .   . .   . .   .     . .   . .     .     .         

  Then back to open chords:
|---------------------------------|---------------------------------|
|---------------------------------|---------------------------------|
|---------------------------------|-5-----5------5--8-----8-10------|
|-5-----5-----7---8-----8-----8---|-5-----5------5--8-----8-10------|
|-5-----5-----7---8-----8-----8---|-3-----3------3--6-----6-8-------|
|-3-----3-----5---6-----6-----6---|---------------------------------|



|---------------------------------|---------------------------------|
|---------------------------------|---------------------------------|
|---------------------------------|-8---8-10---10---------5---------|
|-5-----5-----5---8-----8-----8---|-8---8-10---10---5-----5---------|
|-5-----5-----5---8-----8-----8---|-6---6-8----8----5-----3---------|
|-3-----3-----3---6-----6-----6---|-----------------3---------------|


                                  
|---------------------------------|---------------------------------|
|---------------------------------|---------------------------------|
|-8---8-10---10---------5---------|-8-----10------------------------|
|-8---8-10---10---5-----5---------|-8-----10------------------------|
|-6---6-8----8----5-----3---------|-6-----8-------------------------|
|-----------------3---------------|---------------------------------|


End.

            
            
Suggest correction
Creating personal tab
Creating personal tab
You can edit any tab online and save it as your Personal.

You can edit, replace or remove any tab part or add personal notes – all changes will be seen only by you.

Personal tabs can be accessed anytime from any device, even offline.
Learn more »
Give kudos to tab author, rate the tab!
1 2 3 4 5
comments
print report bad tab
guest
You may want to rate the tab now too:
select rating
Wanna post a correction for this tab? Suggest correction