Oops, an error
Loading. Please wait.

Pet The Destroyer tab

version 1
version 1

Whole song

Interactive

by Lordi
1,943 views 1 this week
no commentswrite comment
1 2 3 4 5
x 4
add to favorites
×
Save as Personal and add changes to this tab that will be seen only by you. Learn more ›
×
You can save this tab as Personal to edit and correct it or add notes. All changes will be seen only by you. Learn more »
launch autoscroll
font size
0
reset
how to read this tab
guitar tuner
edit
Autoscroll
slow
fast
+/-
esc
set tempo
stop
Song: Pet The Destroyer
Band: Lordi
Tabbed by: unspeakable.elvis@gmail.com

Tuning: D standard (low to high: D G C F A D)

Legend:

.       palm mute
h       hammer on
p       pull off
/       slide up to note
\       slide down from note
7b9     bend 7th fret major second up
9r7     release previous bend
x       dead note
~       vibrato
7b9-b9  bend 7th fret up major second, then strike string again while bent


Intro A
~~~~~~~

|---------------------------------|---------------------------------|
|---------------------------------|---------------------------------|
|-3-0-0-5-------------------------|-3-0-0-0-------------------------|
|-3-0-0-5-------------------------|-3-0-0-0-------------------------|
|---------------------------------|---------------------------------|
|---------------------------------|---------------------------------|


Intro B (play x2)
~~~~~~~

|---------------------------------|---------------------------------|
|---------------------------------|---------------------------------|
|-3-0-0-5-0-0-3-0-3-0-5---3-------|-3-0-0-5-0-0-3-0-3-0-------------|
|-3-0-0-5-0-0-3-0-3-0-5---3---3---|-3-0-0-5-0-0-3-0-3-0-0---3---4---|
|-----------------------------3---|---------------------0---3---4---|
|---------------------------------|---------------------------------|



|---------------------------------|---------------------------------|
|---------------------------------|---------------------------------|
|-3-0-0-5-0-0-3-0-3-0-5---3-------|-3-0-0-5-0-0-3-0-----------------|
|-3-0-0-5-0-0-3-0-3-0-5---3---3---|-3-0-0-5-0-0-3-0-0-----3-----4---|
|-----------------------------3---|-----------------0-----3-----4---|
|---------------------------------|---------------------------------|


Verse 1
~~~~~~~

|---------------------------------|---------------------------------|
|---------------------------------|---------------------------------|
|---------------------------------|------------------------10h12-10-| Lead
|---------------------------------|------------------------10h12-10-| Guitar
|---------------------------------|---------------------------------|
|---------------------------------|---------------------------------|
|                                 |                                 |                             
|                                 |                                 |                        
|---------------------------------|---------------------------------|
|---------------------------------|---------------------------------|
|---------------------------------|---------------------------------| Rhythm 
|---------------------------------|---------------------------------| Guitar
|-5---5-5-5---5-5-5---5-5-5---5-5-|-5---5-5-5---5-5-5---5-5-5---5-5-|
|-3---3-3-3---3-3-3---3-3-3---3-3-|-3---3-3-3---3-3-3---3-3-3---3-3-|
  .   . . .   . . .   . . .   . .   .   . . .   . . .   . . .   . .


|---------------------------------|---------------------------------|
|---------------------------------|---------------------------------|
|-12~~~---------------------------|---------------------------------| Lead
|-12-~~---------------------------|---------------------------------| Guitar
|---------------------------------|---------------------------------|
|---------------------------------|---------------------------------|
|                                 |                                 |                             
|                                 |                                 |                          
|---------------------------------|---------------------------------|
|---------------------------------|---------------------------------|
|---------------------------------|---------------------------------| Rhythm 
|---------------------------------|-----------------3---------------| Guitar
|-5---5-5-5---5-5-5---5-5-5---5-5-|-5---5-5-5---5-5-1-----3-----4---|
|-3---3-3-3---3-3-3---3-3-3---3-3-|-3---3-3-3---3-3-------1-----2---|
  .   . . .   . . .   . . .   . .   .   . . .   . .


 "its breath intoxicating..."      "its ego suffocating, it's..."
|---------------------------------|---------------------------------|
|---------------------------------|---------------------------------|
|---------------------------------|---------------------------------|
|----------(bass)-----------------|----------(bass)-----------------|
|---------------------------------|---------------------------------|
|---------------------------------|---------------------------------|


 "here in my house --               trying to get out..."
|---------------------------------|---------------------------------|
|---------------------------------|---------------------------------|
|---------------------------------|---------------------------------|
|---------------------------------|---------------------------------|
|-3-----------------------3-3-----|-3-----------------------3-------|
|-1-----------------------0-1-----|-1-----------------------1-2~~---|
                                                            .

 "its moves exhilirating..."
|---------------------------------|---------------------------------|
|---------------------------------|---------------------------------|
|---------------------------------|---------------------------------|
|----------(bass)-----------------|----------(bass)-----------------|
|---------------------------------|---------------------------------|
|---------------------------------|---------------------------------|


 "it's no sage --               rampage in cage...   but you'll be..."
|---------------------------------|---------------------------------|
|---------------------------------|---------------------------------|
|---------------------------------|---------------------------------|
|---------------------------------|---------------------------------|
|-3-----------------------3-3-----|-3-------------------------------|
|-1-----------------------1-1-----|-1-------------------------------|


Bridge
~~~~~~
 "safe --                   you can feed it --          you wanna..."
|---------------------------------|---------------------------------|
|-4-------------------------------|-----------------------------3---|
|-3-------------------------------|-3---------------------------2---|
|-1-------------------------------|-3-----------3-----------x---0---|
|---------------------------------|-1-----------3-----------x-------|
|---------------------------------|-------------1-----------x-------|


 "play? --              it's almost tamed --              pet the..."
|---------------------------------|---------------------------------|
|-4-------------------------------|-3---3---3---3-------------------|
|-3-------------------------------|-2---2---2---2-------------------|
|-1-------------------------------|-0---0---0---0-------------------|
|---------------------------------|---------------------------------|
|---------------------------------|---------------------------------|


Chorus
~~~~~~
 "destroyer! --      my beast le royale --              pet my..."
|---------------------------------|---------------------------------|
|---------------------------------|---------------------------------|
|---------------------------------|---------------------------------|
|-5-------5---3h5-----3---5-------|-5-------5---3h5-----3---5-------|
|-5-------5---3h5-----3---5-------|-5-------5---3h5-----3---5-------|
|-3-------------------------------|-3-------------------------------|


 "destroyer --               sweet killing machine --   pet my..."     
|---------------------------------|---------------------------------|
|---------------------------------|---------------------------------|
|---------------------------------|---------------------------------|
|-3-------3---0h3-----0---3-------|-3-------3---0h3-----0---3---4---|
|-3-------3---0h3-----0---3-------|-3-------3---0h3-----0---3---4---|
|-1-------------------------------|-1-------------------------------|


 "destroyer..."                                        "oh won't you..."
|---------------------------------|---------------------------------|
|---------------------------------|---------------------------------|
|---------------------------------|---------------------------------|
|-5-------5---3h5-----3---5-------|-5-------5---3h5-----3---5-------|
|-5-------5---3h5-----3---5-------|-5-------5---3h5-----3---5-------|
|-3-------------------------------|-3-------------------------------|


 "please meet the beast?"
|---------------------------------|
|---------------------------------|
|---------------------------------|
|-3-------------------------------|
|-1---------------3-----------4---|
|-----------------1-----------2---|


Verse 2
~~~~~~~

|---------------------------------|---------------------------------|
|---------------------------------|---------------------------------|
|---------------------------------|---------------------------------|
|---------------------------------|-----------------3---------------|
|-5---5-5-5---5-5-5---5-5-5---5-5-|-5---5-5-5---5-5-1-----3-----4---|
|-3---3-3-3---3-3-3---3-3-3---3-3-|-3---3-3-3---3-3-------1-----2---|
  .   . . .   . . .   . . .   . .   .   . . .   . .


 "its stare infatuating..."
|---------------------------------|---------------------------------|
|---------------------------------|---------------------------------|
|---------------------------------|---------------------------------|
|---------------------------------|---------------------------------|
|-5---5-5-5---5-5-5---5-5-5---5-5-|-5---5-5-5---5-5-5---5-5-5---5-5-|
|-3---3-3-3---3-3-3---3-3-3---3-3-|-3---3-3-3---3-3-3---3-3-3---3-3-|
  .   . . .   . . .   . . .   . .   .   . . .   . . .   . . .   . .


 "it breaks off the leash..."
|---------------------------------|---------------------------------|
|---------------------------------|---------------------------------|
|---------------------------------|---------------------------------|
|---------------------------------|---------------------------------|
|-3-----------------------3-3-----|-3-----------------------3-------|
|-1-----------------------0-1-----|-1-----------------------1-2~~---|
                                                            .

 "its jaws intimidating..."
|---------------------------------|---------------------------------|
|---------------------------------|---------------------------------|
|---------------------------------|---------------------------------|
|---------------------------------|---------------------------------|
|-5---5-5-5---5-5-5---5-5-5---5-5-|-5---5-5-5---5-5-5---5-5-5---5-5-|
|-3---3-3-3---3-3-3---3-3-3---3-3-|-3---3-3-3---3-3-3---3-3-3---3-3-|
  .   . . .   . . .   . . .   . .   .   . . .   . . .   . . .   . .


 "it looks kinda mad..."                                "this isn't..."
|---------------------------------|---------------------------------|
|---------------------------------|---------------------------------|
|---------------------------------|---------------------------------|
|---------------------------------|---------------------------------|
|-3-----------------------3-3-----|-3-------------------------------|
|-1-----------------------1-1-----|-1-------------------------------|


Back to Bridge, then Chorus, after which:

Middle bit before solo
~~~~~~~~~~~~~~~~~~~~~~
 "the beast --        oh won't you please --       feed my..."
|---------------------------------|---------------------------------|
|---------------------------------|---------------------------------|
|---------------------------------|---------------------------------|
|---------------------------------|-8-------------------------------|
|-5-------------------------------|-6---------------3-----------4---|
|-3-------------------------------|-----------------1-----------2---|


 "beast?"
|---------------------------------|---------------------------------|
|---------------------------------|---------------------------------|
|-3-0-0-5-0-0-3-0-3-0-5---3-------|-3-0-0-5-0-0-3-0-3-0-------------|
|-3-0-0-5-0-0-3-0-3-0-5---3---3---|-3-0-0-5-0-0-3-0-3-0-0---3---4---|
|-----------------------------3---|---------------------0---3---4---|
|---------------------------------|---------------------------------|



|---------------------------------|---------------------------------|
|---------------------------------|---------------------------------|
|-3-0-0-5-0-0-3-0-3-0-5---3-------|-3-0-0-5-0-0-3-0-----------------|
|-3-0-0-5-0-0-3-0-3-0-5---3---3---|-3-0-0-5-0-0-3-0-3-----4-----5---|
|-----------------------------3---|-----------------3-----4-----5---|
|---------------------------------|---------------------------------|



|---------------------------------|---------------------------------|
|---------------------------------|---------------------------------|
|-3-----4-----5-------------------|-5-------------------------------|
|-3-----4-----5---3-----4-----5---|-5-------------------------------|
|-----------------3-----4-----5---|-3-------------------------------|
|---------------------------------|---------------------------------|



|---------------------------------|
|---------------------------------|
|-----------------------------3---| Lead
|-------------------------5-------| Guitar
|---------------------------------|
|---------------------------------|
|                                 |
|                                 |
|---------------------------------|
|---------------------------------|
|-3-------------------------------| Rhythm
|-3---------------3---------------| Guitar
|-1---------------3---------------|
|-----------------1-------2~~~----|


Solo
~~~~

|---------------------------------|---------------------------------|
|---------------------------------|---------------------------------|
|-5b7---5b7-------------------3---|-5b7---5b7-----------------------| Lead
|-------------------------5-------|---------------------------------| Guitar
|---------------------------------|---------------------------------|
|---------------------------------|---------------------------------|
|                                 |                                 |
|                                 |                                 |
|---------------------------------|---------------------------------|
|---------------------------------|---------------------------------|
|---------------------------------|---------------------------------| Rhythm
|---------------------------------|---------------------------------| Guitar
|-5---5-5-5---5-5-5---5-5-5---5-5-|-5---5-5-5---5-5-5---5-5-5---5-5-|
|-3---3-3-3---3-3-3---3-3-3---3-3-|-3---3-3-3---3-3-3---3-3-3---3-3-|
  .   . . .   . . .   . . .   . .   .   . . .   . . .   . . .   . .


|---------------------------------|---------------------------------|
|---------------------------------|-----------------------------11--|
|-7-----5-----3p2~~~----------3---|-7-----5-----3h5--------/12------| Lead
|-------------------------5-------|---------------------------------|
|---------------------------------|---------------------------------|
|---------------------------------|---------------------------------|
|                                 |                                 |
|                                 |                                 |
|---------------------------------|---------------------------------|
|---------------------------------|---------------------------------|
|---------------------------------|---------------------------------| Rhythm
|---------------------------------|---------------------------------|
|-3---3-3-3---3-3-3---3-3-3---3-3-|-3---3-3-3---3-3-3---3-3-3---4---|
|-1---1-1-1---1-1-1---1-1-1---1-1-|-1---1-1-1---1-1-1---1-1-1---2---|
  .   . . .   . . .   . . .   . .   .   . . .   . . .   . . .   .


|-------13------10~~~-------------|-------13------10~~~-\-----------|
|-13b15-----------------------11--|-13b15---------------------------|
|------------------------/12------|---------------------------------| Lead
|---------------------------------|---------------------------------|
|---------------------------------|---------------------------------|
|---------------------------------|---------------------------------|
|                                 |                                 |
|                                 |                                 |
|---------------------------------|---------------------------------|
|---------------------------------|---------------------------------|
|---------------------------------|---------------------------------| Rhythm
|---------------------------------|---------------------------------|
|-5---5-5-5---5-5-5---5-5-5---5-5-|-5---5-5-5---5-5-5---5-5-5---5-5-|
|-3---3-3-3---3-3-3---3-3-3---3-3-|-3---3-3-3---3-3-3---3-3-3---3-3-|
  .   . . .   . . .   . . .   . .   .   . . .   . . .   . . .   . .


|---------------------------------|---------------------------------|
|-6---------------8---------------|-11------------------------------|
|-8b10------------10b12-----------|-13b15---------------------------| Lead
|---------------------------------|---------------------------------|
|---------------------------------|---------------------------------|
|---------------------------------|---------------------------------|
|                                 |                                 |
|                                 |                                 |
|---------------------------------|---------------------------------|
|---------------------------------|---------------------------------|
|---------------------------------|---------------------------------| Rhythm
|-3-------------------------------|---------------------------------|
|-1---------------3-----------4---|-5-------------------------------|
|-----------------1-----------2---|-3-------------------------------|



|-----------15-----------15-----------15-----------15-----------15--|
|-14b16-b16----14b16-b16----14b16-b16----14b16-b16----14b16-b16-----|
|-------------------------------------------------------------------| Lead
|-------------------------------------------------------------------|
|-------------------------------------------------------------------|
|-------------------------------------------------------------------|
|                                                                   |
|                                                 "pet      the..." |
|-------------------------------------------------------------------|
|-------------------------------------------------------------------|
|-------------------------------------------------------------------| Rhythm
|-8-----------------------------------------------------------------|
|-6------------------------------3---------------------------4------|
|--------------------------------1---------------------------2------|



|-13b15-b15-b15-b15~~~------------|
|---------------------------------|
|---------------------------------| Lead
|---------------------------------| Guitar
|---------------------------------|
|---------------------------------|


Rhythm goes back to Chorus x2, after which:
                    ~~~~~~~~~

Finale
~~~~~~

 "the beast --        oh won't you please --       feed my..."
|---------------------------------|---------------------------------|
|---------------------------------|---------------------------------|
|---------------------------------|---------------------------------|
|---------------------------------|-8-------------------------------|
|-5-------------------------------|-6---------------3-----------4---|
|-3-------------------------------|-----------------1-----------2---|


 "beast!"
|---------------------------------|
|---------------------------------|
|-3-0-0-5-0-0-3-0-3-0-------------|
|-3-0-0-5-0-0-3-0-3-0-3---5-------|
|---------------------3---5-------|
|---------------------------------|


End!

            
            
Suggest correction
Creating personal tab
Creating personal tab
You can edit any tab online and save it as your Personal.

You can edit, replace or remove any tab part or add personal notes – all changes will be seen only by you.

Personal tabs can be accessed anytime from any device, even offline.
Learn more »
comments
print report bad tab
guest
You may want to rate the tab now too:
select rating
Wanna post a correction for this tab? Suggest correction