Oops, an error
Loading. Please wait.

Sober tab

by Loreen
1,461 views 1 this week
no commentswrite comment
1 2 3 4 5
2 more votes to show rating
add to favorites
×
Save as Personal and add changes to this tab that will be seen only by you. Learn more ›
×
You can save this tab as Personal to edit and correct it or add notes. All changes will be seen only by you. Learn more »
launch autoscroll
font size
0
reset
how to read this tab
guitar tuner
edit
Autoscroll
slow
fast
+/-
esc
set tempo
stop
-----------------------------------------------------------------------------
                             Sober- Loreen
-----------------------------------------------------------------------------
Hey guys! I'd been looking for the tab of the acoustic version for Sober for ages, but 
no one had done it, so I figured out I'd do it.
I'm 100% sure it's correct, since I've  tabbed it out of watching how Moh plays it (though he 
adds little variations).
This is the live version of it. The official recorded one has normal picking
(no lower e) and in the chorus is c# (not c#m). Apart from that, it's the same.
So I hope this is useful. Enjoy!

You can also look up this video to get a better idea of the strumming patterns and the 
rhythym: http://www.youtube.com/watch?v=xGiex5wM4dk

Tuning: EADGBE

Intro *picking from 5th string to 2nd*

            You can end up in either one of these E.(One single strum)
e|---0---0---0----0---0-----0-------0----------------------------------------|
B|---0---0---0----0---0-----0-------0----------------------------------------|
G|---6---8---1h2--6---8-----1---or--9----------------------------------------|
D|---7---9---2----7---9-----2-------9----------------------------------------|
A|---7---9---2----7---9-----2-------7----------------------------------------|
E|---0---0---0----0---0-----0-------0----------------------------------------|

Verse
*Instead of picking up the b string, pick the lower e*

Where we go, I don't care no...
On our way, I can't believe that I'm...
e|----0---0---0--0-----------------------------------------------------------|
B|----0---0---5--0-----------------------------------------------------------|
G|----7---8---6--6-----------------------------------------------------------|
D|----9---9---6--7-----------------------------------------------------------|
A|----9---9---4--7-----------------------------------------------------------|
E|----x---7---x--5-----------------------------------------------------------|

Chorus
*Strumming-listen to the song to figure out the pattern*

I know this moment will be over...

     E   B   C#m  A
e|---0---0---0----0----------------------------------------------------------|
B|---0---0---5----0----------------------------------------------------------|
G|---1---4---6----2----------------------------------------------------------|
D|---2---4---6----2----------------------------------------------------------|
A|---2---2---4----0----------------------------------------------------------|
E|---0---x---x----0----------------------------------------------------------|

You can add little variations to the chords with your pinky too.
You can also end the chorus and go back to the 2nd verse with this progression.
e|----0---0---0--------------------------------------------------------------|
B|----0---0---0--------------------------------------------------------------|
G|----2---4---6--------------------------------------------------------------|
D|----2---4---6--------------------------------------------------------------|
A|----0---0---0--------------------------------------------------------------|
E|----0---0---0--------------------------------------------------------------|

Bridge
*Strumming, again, listen to get the pattern*

e|----0---0---0---0----0---0-----0-------------------------------------------|
B|----0---0---0---0----0---0-----0-------------------------------------------|
G|----1-\-6---8---1h2--6---8-----1-------------------------------------------|
D|----2-\-7---9---2----7---9-----2-------------------------------------------|
A|----2-\-7---9---2----7---9-----2-------------------------------------------|
E|----0---0---0---0----0---0-----0-------------------------------------------|

Song structure:

Intro
Verse 1
Chorus
verse 2
Chorus
Bridge

************************************

| /   slide up
| \   slide down
| h   hammer-on
| p   pull-off
| ~   vibrato
| +   harmonic
| x   Mute note
| b   Bend
| pb  Pre-bend
| br  Bend release
| pbr Pre-bend release
| brb Bend release bend

************************************

            
            
Suggest correction
Creating personal tab
Creating personal tab
You can edit any tab online and save it as your Personal.

You can edit, replace or remove any tab part or add personal notes – all changes will be seen only by you.

Personal tabs can be accessed anytime from any device, even offline.
Learn more »
Give kudos to tab author, rate the tab!
1 2 3 4 5
comments
print report bad tab
guest
You may want to rate the tab now too:
select rating
Wanna post a correction for this tab? Suggest correction