Oops, an error
Loading. Please wait.

Tema Para Jovenes Enamorados bass

2,181 views 6 this week
no commentswrite comment
1 2 3 4 5
3 more votes to show rating
add to favorites
×
Save as Personal and add changes to this tab that will be seen only by you. Learn more ›
×
You can save this tab as Personal to edit and correct it or add notes. All changes will be seen only by you. Learn more »
launch autoscroll
font size
0
reset
guitar tuner
edit
Autoscroll
slow
fast
+/-
esc
set tempo
stop
Difficulty
intermediate
TEMA PARA JÓVENES ENAMORADOS

Los Belkings

G|---------------------------------|---------------------------------|
D|-------------------------4-------|-------------------------4-------|
A|-2-----------2---2---------------|-2-----------2---2---------------|
E|---------------------------------|---------------------------------|

G|---------------------------------|---------------------------------|
D|-------------------------7-------|-------------------------7-------|
A|-5-----------5---5---------------|-5-----------5---5---------------|
E|---------------------------------|---------------------------------|

G|---------------------------------|---------------------------------|
D|-------------------------4-------|-------------------------4-------|
A|-2-----------2---2---------------|-2-----------2---2---------------|
E|---------------------------------|---------------------------------|

G|---------------------------------|---------------------------------|
D|-2-------------------------------|---------------------------------|
A|-------------3-----------2-------|---------------------------------|
E|---------------------------------|-5---------------5-------7-------|



G|---------------------------------|---------------------------------|
D|---------------------------------|-5-----------5-----------5-------|
A|-5-----------5-----------5-------|-----------------5---------------|
E|-----------------5---------------|---------------------------------|

G|---------------------------------|---------------------------------|
D|---------------------------------|-4-----------4-----------4-------|
A|-5-----------5-----------5-------|-----------------4---------------|
E|-----------------5---------------|---------------------------------|

G|---------------------------------|---------------------------------|
D|---------------------------------|-----------------4---------------|
A|-5-----------5-----------5-------|-2-----------2-----------2-------|
E|-----------------5---------------|---------------------------------|

G|---------------------------------|---------------------------------|
D|-2-------------------------------|---------------------------------|
A|-------------3-----------2-------|---------------------------4-----|
E|---------------------------------|-5---------------5----7----------|



G|---------------------------------|---------------------------------|
D|---------------------------------|-5-----------5-----------5-------|
A|-5-----------5-----------5-------|-----------------5---------------|
E|-----------------5---------------|---------------------------------|

G|---------------------------------|---------------------------------|
D|-4-----------4-----------4-------|-5-----------5-----------5-------|
A|-----------------4---------------|-----------------5---------------|
E|---------------------------------|---------------------------------|

G|---------------------------------|---------------------------------|
D|---------------------------------|-5-----------5-----------5-------|
A|-5-----------5-----------5-------|-----------------5---------------|
E|-----------------5---------------|---------------------------------|

G|---------------------------------|---------------------------------|
D|-5-----------5-----------5-------|---------------------------------|
A|-----------------5---------------|-5-----------5-----------5-------|
E|---------------------------------|-----------------5---------------|



G|---------------------------------|---------------------------------|
D|---------------------------------|-5-----------5-----------5-------|
A|-5-----------5-----------5-------|-----------------5---------------|
E|-----------------5---------------|---------------------------------|

G|---------------------------------|---------------------------------|
D|---------------------------------|-4-----------4-----------4-------|
A|-5-----------5-----------5-------|-----------------4---------------|
E|-----------------5---------------|---------------------------------|

G|---------------------------------|---------------------------------|
D|---------------------------------|-----------------4---------------|
A|-5-----------5-----------5-------|-2-----------2-----------2-------|
E|-----------------5---------------|---------------------------------|

G|---------------------------------|---------------------------------|
D|-2-------------------------------|---------------------------------|
A|-------------3-----------2-------|---------------------------4-----|
E|---------------------------------|-5---------------5----7----------|



G|---------------------------------|---------------------------------|
D|---------------------------------|-5-----------5-----------5-------|
A|-5-----------5-----------5-------|-----------------5---------------|
E|-----------------5---------------|---------------------------------|

G|---------------------------------|---------------------------------|
D|-4-----------4-----------4-------|-5-----------5-----------5-------|
A|-----------------4---------------|-----------------5---------------|
E|---------------------------------|---------------------------------|

G|---------------------------------|---------------------------------|
D|---------------------------------|-5-----------5-----------5-------|
A|-5-----------5-----------5-------|-----------------5---------------|
E|-----------------5---------------|---------------------------------|

G|---------------------------------|---------------------------------|
D|-5-----------5-----------5-------|---------------------------------|
A|-----------------5---------------|-5-----------5-----------5-------|
E|---------------------------------|-----------------5---------------|



G|---------------------------------|---------------------------------|
D|---------------------------------|---------------------------------|
A|-------------------------7-------|-------------------------7-------|
E|-5-----------5---5---------------|-5-----------5---5---------------|

G|---------------------------------|---------------------------------|
D|-------------------------7-------|-------------------------7-------|
A|-5-----------5---5---------------|-5-----------5---5---------------|
E|---------------------------------|---------------------------------|

G|---------------------------------|---------------------------------|
D|---------------------------------|---------------------------------|
A|-------------------------7-------|-------------------------7-------|
E|-5-----------5---5---------------|-5-----------5---5---------------|

G|---------------------------------|---------------------------------|
D|---------------------------------|---------------------------------|
A|-5-----------5-------------------|-5-----------5-----------5-------|
E|-----------------5-----------5---|-----------------5---------------|



G|---------------------------------|---------------------------------|
D|-------------------------4-------|-------------------------4-------|
A|-2-----------2---2---------------|-2-----------2---2---------------|
E|---------------------------------|---------------------------------|

G|---------------------------------|---------------------------------|
D|-------------------------7-------|-------------------------7-------|
A|-5-----------5---5---------------|-5-----------5---5---------------|
E|---------------------------------|---------------------------------|

G|-------------------------7-------|-------------------------7-------|
D|-5-----------5---5---------------|-5-----------5---5---------------|
A|---------------------------------|---------------------------------|
E|---------------------------------|---------------------------------|

G|---------------------------------|---------------------------------|
D|---------------------------------|---------------------------------|
A|-------------------------7-------|---------------------------------|
E|-5-----------5---5---------------|-5-----------5---5-------7-------|



G|---------------------------------|---------------------------------|
D|---------------------------------|-5-----------5-----------5-------|
A|-5-----------5-----------5-------|-----------------5---------------|
E|-----------------5---------------|---------------------------------|

G|---------------------------------|---------------------------------|
D|---------------------------------|-4-----------4-----------4-------|
A|-5-----------5-----------5-------|-----------------4---------------|
E|-----------------5---------------|---------------------------------|

G|---------------------------------|---------------------------------|
D|---------------------------------|-----------------4---------------|
A|-5-----------5-----------5-------|-2-----------2-----------2-------|
E|-----------------5---------------|---------------------------------|

G|---------------------------------|---------------------------------|
D|-2-------------------------------|---------------------------------|
A|-------------3-----------2-------|---------------------------4-----|
E|---------------------------------|-5---------------5----7----------|



G|---------------------------------|---------------------------------|
D|---------------------------------|-5-----------5-----------5-------|
A|-5-----------5-----------5-------|-----------------5---------------|
E|-----------------5---------------|---------------------------------|

G|---------------------------------|---------------------------------|
D|-4-----------4-----------4-------|-5-----------5-----------5-------|
A|-----------------4---------------|-----------------5---------------|
E|---------------------------------|---------------------------------|

G|---------------------------------|---------------------------------|
D|---------------------------------|-5-----------5-----------5-------|
A|-5-----------5-----------5-------|-----------------5---------------|
E|-----------------5---------------|---------------------------------|

G|---------------------------------|---------------------------------|
D|-5-----------5-----------5-------|---------------------------------|
A|-----------------5---------------|-5-----------5-----------5-------|
E|---------------------------------|-----------------5---------------|



G|---------------------------------|---------------------------------|
D|-------------------------4-------|-------------------------4-------|
A|-2-----------2---2---------------|-2-----------2---2---------------|
E|---------------------------------|---------------------------------|

G|---------------------------------|---------------------------------|
D|-------------------------7-------|-------------------------7-------|
A|-5-----------5---5---------------|-5-----------5---5---------------|
E|---------------------------------|---------------------------------|

G|---------------------------------|---------------------------------|
D|-------------------------4-------|-------------------------4-------|
A|-2-----------2---2---------------|-2-----------2---2---------------|
E|---------------------------------|---------------------------------|

G|---------------------------------|---------------------------------|
D|-2-------------------------------|---------------------------------|
A|-------------3-----------2-------|---------------------------------|
E|---------------------------------|-5---------------5----------5----|

G|---------------------------------|---------------------------------|
D|---------------------------------|---------------------------------|
A|-5-------------------------------|---------------------------------|
E|---------------------------------|---------------------------------|

            
            
Suggest correction
Creating personal tab
Creating personal tab
You can edit any tab online and save it as your Personal.

You can edit, replace or remove any tab part or add personal notes – all changes will be seen only by you.

Personal tabs can be accessed anytime from any device, even offline.
Learn more »
Give kudos to tab author, rate the tab!
1 2 3 4 5
comments
print report bad tab
guest
Wanna post a correction for this tab? Suggest correction