Oops, an error
Loading. Please wait.

Todo Tan Raro tab

version 1
version 1

Whole song

17 views 1 this week
no commentswrite comment
1 2 3 4 5
3 more votes to show rating
add to favorites
×
Save as Personal and add changes to this tab that will be seen only by you. Learn more ›
×
You can save this tab as Personal to edit and correct it or add notes. All changes will be seen only by you. Learn more »
launch autoscroll
font size
0
reset
how to read this tab
guitar tuner
edit
Autoscroll
slow
fast
+/-
esc
set tempo
stop
Intro: E B C#m A

E|---------------------------------------------------------|
B|---------------------------------------------------------|
G|-9s11-11-------------------------------------7-9-7-----7-|
D|---------9s11-11-11-12-12-12-11-9-7----7-7s9-------7s9---|
A|-------------------------------------9-------------------|
e|---------------------------------------------------------|

E|---------------------------------------|
B|---------------------------------------|
G|-9s11-9-7---11-11-9-9--7-9-7----------7|
D|-----------------------------9---7-9---|
A|--------------------------------9------|
e|---------------------------------------|

E             B           C#m             A 
Son estos dias de vivir con la muerte en la nuca
E             B            C#m             A 
en esta epidemia de silencios de nunca acabar
E           B          C#m             A 
seria bueno distraerse tejiendo ternuras,
E             B                 C#m               A  
que abran cancha las penas y un milagro nos saque a bailar.
     G             F#
Pero esta todo tan raro.
G           F#
Toda tan raro.
Am          Em          F         C              D
nadie sabe que precio colgarse en la rifa de la soledad.

G               F#         
Hoy esta toda tan raro.
G           F#
todo tan raro.
Am          Em           F              C             D
Uno empieza tachando la doble y terminan en el fondo del mar

Solo(Es una variacion de la intro):

E|-----------------------------------------------|
B|-----------------------------------------------|
G|--------9--12-12-11-9-7------7------7h9s11-9-7-|
D|-9s11-9------------------7s9---7s9-------------|
A|-----------------------------------------------|
e|-----------------------------------------------|

E|-------------------------------|
B|-------------------------------|
G|-11-11-9-9--7-9-7------------7-|
D|------------------9-----7-9----|
A|----------------------9--------|
e|-------------------------------|

(Como estrofa)(Despues toda la cancion sigue igual que al pricipio)

Son estas noches de esperanzas desperadas
de le sueño en compota y el escabio para no pensar
pero..¿Quien nos dice que a la vuelta de tanta derrota
cambiemos de pilcha y los miedo nos deje4n en paz?

Hoy esta todo tan raro.
todo tan raro.
uno empieza tachando la doble y termina en el fondo del mar.

En este pais en broma, nada nos hace reir
con la mierda llegando al cuello se pone oscuro respirar para seguir
porque esta todo tan raro
todo tan raro

Hoy esta toda tan raro.
todo tan raro.

E      B      C#m      G      F#      F      Am      Em      C      D

E|-0-|      E|-2-|      E|-4-|      E|-3-|      E|-2-|      E|-1-|      E|-0-|       E|-0-|      E|-0-|      E|-2-|
B|-0-|      B|-4-|      B|-5-|      B|-3-|*      B|-2-|      B|-1-|      B|-1-|      B|-0-|      B|-1-|      B|-3-|
G|-1-|      G|-4-|      G|-6-|      G|-0-|      G|-3-|      G|-2-|      G|-2-|      G|-0-|      G|-0-|      G|-2-|
D|-2-|      D|-4-|      D|-6-|      D|-0-|      D|-4-|      D|-3-|      D|-2-|      D|-2-|      D|-2-|      D|-0-|
A|-2-|      A|-2-|      A|-4-|      A|-2-|      A|-4-|      A|-3-|      A|-0-|      A|-2-|      A|-3-|      A|-X-|
e|-0-|      e|-X-|      e|-X-|      e|-3-|      e|-2-|      e|-1-|      e|-X-|      e|-0-|      e|-X-|      e|-X-|

Esa nota es opcional.

            
            
Suggest correction
Creating personal tab
Creating personal tab
You can edit any tab online and save it as your Personal.

You can edit, replace or remove any tab part or add personal notes – all changes will be seen only by you.

Personal tabs can be accessed anytime from any device, even offline.
Learn more »
Give kudos to tab author, rate the tab!
1 2 3 4 5
comments
print report bad tab
guest
Wanna post a correction for this tab? Suggest correction