Oops, an error
Loading. Please wait.

Todo Tan Raro tab

version 2
version 2

Whole song

49 views 1 this week
no commentswrite comment
1 2 3 4 5
3 more votes to show rating
add to favorites
×
Save as Personal and add changes to this tab that will be seen only by you. Learn more ›
×
You can save this tab as Personal to edit and correct it or add notes. All changes will be seen only by you. Learn more »
launch autoscroll
font size
0
reset
how to read this tab
guitar tuner
edit
Autoscroll
slow
fast
+/-
esc
set tempo
stop
Este es mi primer tab y a la vez la version mas completa de este gran tema.
Espero q disfruten al tocarlo, como yo al transcribirlo.
Son acordes sencillos, para 1 o dos guitarras.
(Intro)

   D     A       B#m         F#m       G           D
E|-0h2-----------------------------------------------------|
B|-------0h2---2-3-3-3-2-0-----------------3-5---4-5~7-5-4-|
G|---------------------------2-----2-----4-----5-----------|
D|-0-----------------------------4-------------------------|
A|-------0-------2---2-----------------------------0-------|
e|---------------------------2---------3-------------------|

   Em     A          D... (sigue hasta LA 1ra. Parte)
E|---2-0-------------2----|
B|--------2~3-2----2~3----|
G|--------------2----2----|
D|-------------------0----|
A|--------0---------------|
e|-0----------------------|

(1ra. Parte)
          A          B#m                   F#m
Son estos dias de vivir con la muerte en la nuca
G              D            Em                A
     en esta epidemia de silencios de nunca acabar
D          A          B#m                F#m
     Seria bueno distraerse tejiendo ternuras,
G                        D              Em                A
     que abran cancha las penas y un milagro nos saque a bailar.

(Estribillo)
        G        D
Pero esta todo tan raro,
G             D
     todo es tan raro.
      B#m                F#m          Em           A
nadie sabe que precio colgarse en la rifa de la soledad.

        G        D
Pero esta todo tan raro,
G             D
     todo es tan raro.
            B#m             F#m        Em           A
Que uno empieza tachando la doble y termina en el fondo del mar... no no no

(Solo)
   D     A     B#m          F#m    G           D
E|-0~2---5-------10-10-9-7--5-2-5----------------------|
B|-----5---5-7-------------------------3-5---3-5~7-5-3-|
G|-----------------------------------4-----4-----------|
D|-0-------------------------------------------0-------|
A|-------0---------------------------------------------|
e|-------------7------------2------3-------------------|
   Em           A         D... (sigue hasta LA 2da. Parte)
E|------------------------2--|
B|---7-7--5-5-3-3-2-----2~3--|
G|------------------4-2---2--|
D|---------------------------|
A|--------------0------------|
e|-0-------------------------|

(2da. Parte)
(Se repiten los mismos acordes que en la primera parte)

Son estas noches de esperanzas desesperadas
del sueño en compota y el escabio para no pensar.
Pero quien nos dice que a la vuelta de tanta derrota
cambiemos de pilchas y los miedos nos dejen en paz

(Igual al estribillo)
Hoy esta todo tan raro,
todo es tan raro.
nadie sabe que precio colgarse en la rifa de la soledad.
Hoy esta todo tan raro,
todo es tan raro.
Que uno empieza tachando la doble y termina en el fondo del mar.

(Puente)
B#m          F#m            D              A
    En este pais en broma, nada nos hace reir
G                     D                  Em          A
    Con la mierda llegando al cuello se pone oscuro respirar para seguir

(Igual al estribillo)
Porque esta todo tan raro,
todo es tan raro.
nadie sabe que precio colgarse en la rifa de la soledad.
Hoy esta todo tan raro,
todo es tan raro.
Que uno empieza tachando la doble y termina en el fondo del mar.

(Final)
D           A      B#m       Em   A
Hoy, hoy esta todo tan raro.
D           A      B#m       Em   A
Hoy, hoy esta todo tan raro.
D           A      B#m       Em   A
Hoy, hoy esta todo tan raro.
D           A      B#m       Em   A
Hoy, hoy esta todo tan raro.
       G                  D
Hoy estaaaaa... todo tan raro.

            
            
Suggest correction
Creating personal tab
Creating personal tab
You can edit any tab online and save it as your Personal.

You can edit, replace or remove any tab part or add personal notes – all changes will be seen only by you.

Personal tabs can be accessed anytime from any device, even offline.
Learn more »
Give kudos to tab author, rate the tab!
1 2 3 4 5
comments
print report bad tab
guest
Wanna post a correction for this tab? Suggest correction