Oops, an error
Loading. Please wait.

Yo Te Voy A Amar tab

50 views 1 this week
no commentswrite comment
1 2 3 4 5
3 more votes to show rating
add to favorites
×
Save as Personal and add changes to this tab that will be seen only by you. Learn more ›
×
You can save this tab as Personal to edit and correct it or add notes. All changes will be seen only by you. Learn more »
launch autoscroll
font size
0
reset
how to read this tab
guitar tuner
edit
Autoscroll
slow
fast
+/-
esc
set tempo
stop
Los Cadiz - Yo Te Voy A Amar

e/---10-10-10----10-10-10-(x4)---------------------5h4h5---10--
b/---10-10-10----10-10-10--------------------5h4h5---------10--
g/---11-11-11----11-11-11-------------6h5h6----------------11--
d/-0-----------0----------------7h6h7--------------------------
a/-------------------------------------------------------------
e/-------------------------------------------------------------


                    Bm G                A
Cuando sientas tristeza que no puedas calmar

                 Bm  G                 A
cuando haya un vació que no puedas llenar

      G            A          D        A       Bm
te abrazaré te haré olvidar lo que te hizo sufrir

  G                                  A
no vas a caer mientras estés junto a mí


    D                  A        Bm              G
Si siente un frió tu corazón seré tu abrigo tu ilusión

D                 A            G                 D
hasta ya no respirar yo te voy a amar, yo te voy a amar


SOLO:

e/-------------------5h4h5-----2-------2-------2-------3-----3-s-10--
b/-------------5h4h5----------3-3-----3-3-----3-3-----3-3----3-s-10--
g/-------6h5h6---------------2---2-2-3---3-3-4---4-4-4---4---4-s-11-
d/-7h6h7----------------------------------------------------------
a/----------------------------------------------------------------
e/---------------------------------------------------------------


esta parte es bastante rapida y jodida
e/---7-10---7-10---7-10---7-10---------9-10---9-10---9-10---9-10--7--
b/-8------8------8------8------8-7---7------7------7------7---------10
g/-------------------------------------------------------------------
d/-------------------------------------------------------------------
a/--------------------------------------------------------------------
e/-------------------------------------------------------------------

e/---9-12----9-12----9-12----9-12-12s14-12-10----------10--8---8---8-7
b/10------10------10------10------------------------------------------
g/------------------------------------------------10s11-------9---9---
d/--------------------------------------------------------------------
a/--------------------------------------------------------------------
e/-------------------------------------------------------------------

e/--7-10---7-10---7-10---7-10---------9-10---9-10---9-10---9-10--7----
b/8------8------8------8------8-7---7------7------7------7---------10
g/--------------------------------------------------------------------
d/--------------------------------------------------------------------
a/--------------------------------------------------------------------
e/--------------------------------------------------------------------


e/---9-12----9-12----9-12----9-12-12s14-12-10-------------------5h4h5
b/10------10------10------10-------------------------------5h4h5---
g/----------------------------------------------------6h5h6----------
d/----------------------------------------------7h6h7--------------
a/------------------------------------------------------------------
e/------------------------------------------------------------------


                    Bm G              A
Yo siempre te he amado y amor yo estaré

                   Bm  G               A
por siempre a  tu lado nunca me alejaré

        G            A                    D       A        Bm
prometo mi amor te juro ante dios que yo nunca te voy a faltar

    G                      A
tú corazón no volverá a llorar


    D                A           Bm         G
Si siente frió tu corazón seré tu abrigo tu ilusión

D                A            G                 D
hasta ya no respirar yo te voy a amar, yo te voy a amar


SOLO:

ACa esta el tema completoo
Espero q sirva 

            
            
Suggest correction
Creating personal tab
Creating personal tab
You can edit any tab online and save it as your Personal.

You can edit, replace or remove any tab part or add personal notes – all changes will be seen only by you.

Personal tabs can be accessed anytime from any device, even offline.
Learn more »
Give kudos to tab author, rate the tab!
1 2 3 4 5
comments
print report bad tab
guest
Wanna post a correction for this tab? Suggest correction