Oops, an error
Loading. Please wait.

Las Gaviotas tab

330 views 1 this week
no commentswrite comment
1 2 3 4 5
3 more votes to show rating
add to favorites
×
Save as Personal and add changes to this tab that will be seen only by you. Learn more ›
×
You can save this tab as Personal to edit and correct it or add notes. All changes will be seen only by you. Learn more »
launch autoscroll
font size
0
reset
how to read this tab
guitar tuner
edit
Autoscroll
slow
fast
+/-
esc
set tempo
stop
tab.(sol). punteo.

             G                                          D7
E----7-7--5--3-3---7-----12--10-12-12-10-8-7-5-3--7-5-3-2-
B---------------------------------------------------------
G----7-7--5--4-4---7-----12--11-12-12-11-9-7-5-4--7-5-4-2-
D---------------------------------------------------------
A---------------------------------------------------------
E---------------------------------------------------------


 G
QUE HANDAN HACIENDO EASA GAVIOTAS
                                    D7
QUE ANDAN HACIENDO A LA ORILLA DEL MAR

ANDAN BUSCANDO NIDOS DE AMORES,
                            G
NIDOS DE AMORES NO ENCONTRARAN,

SI QUIERES VAMOS EN MI BARQUITO
                          D7
SI QUIERES VAMOS TE LLEVARE,

Y CUANDO ESTEMOS EN LA OTRA ORILLA
                          G
NUEVAS CANCIONES TE CANTARE.

HAY COMO BRILLA TU NEGRO PELO
                                  D7
HAY COMO BRILLA A LA ORILLA DEL MAR,
                                                             G
Y CUANDO ESTEMOS EN LA OTRA ORILLA NUEVAS CANCIONES TE CANTARE.


     D7                                    G.
E---2-2-3-5-5-7-8-7-8~10-8-7-5--8~10-8-7-5-3--------------
B---------------------------------------------------------
G---2-2-4-5-5-7-9-7-9~11-9-7-5--9~11-9-7-5-4--------------
D---------------------------------------------------------
A---------------------------------------------------------
E---------------------------------------------------------


 G
QUE HANDAN HACIENDO EASA GAVIOTAS
                                    D7
QUE ANDAN HACIENDO A LA ORILLA DEL MAR

ANDAN BUSCANDO NIDOS DE AMORES,
                            G
NIDOS DE AMORES NO ENCONTRARAN,

SI QUIERES VAMOS EN MI BARQUITO
                          D7
SI QUIERES VAMOS TE LLEVARE,

Y CUANDO ESTEMOS EN LA OTRA ORILLA
                          G
NUEVAS CANCIONES TE CANTARE.

HAY COMO BRILLA TU NEGRO PELO
                                  D7
HAY COMO BRILLA A LA ORILLA DEL MAR,
                                                             G
Y CUANDO ESTEMOS EN LA OTRA ORILLA NUEVAS CANCIONES TE CANTARE.

Espero sea de gran ayuda.
 para sus comentarios.
GRACIAS.  ATTE.  TRUCHO13.

            
            
Suggest correction
Creating personal tab
Creating personal tab
You can edit any tab online and save it as your Personal.

You can edit, replace or remove any tab part or add personal notes – all changes will be seen only by you.

Personal tabs can be accessed anytime from any device, even offline.
Learn more »
Give kudos to tab author, rate the tab!
1 2 3 4 5
comments
print report bad tab
guest
Wanna post a correction for this tab? Suggest correction