Oops, an error
Loading. Please wait.

Palmeras tab

37 views 1 this week
no commentswrite comment
1 2 3 4 5
3 more votes to show rating
add to favorites
×
Save as Personal and add changes to this tab that will be seen only by you. Learn more ›
×
You can save this tab as Personal to edit and correct it or add notes. All changes will be seen only by you. Learn more »
launch autoscroll
font size
0
reset
how to read this tab
guitar tuner
edit
Autoscroll
slow
fast
+/-
esc
set tempo
stop
----7----7----7-------------------7----7----7-----
   --8----8----8----8-8-10-8-7-----8----8----8---
   ----9----9----9-------------------9----9----9-
   ----------------------------------------------
   ----------------------------------------------
   ---------------------------------------------


   -----------------------7-----------7-------
----12-12-14-12-11------7---10-10-10----------
----------------------8-----------------------
--------------------9-------------------------
----------------------------------------------
----------------------------------------------

-------------
--7-8-7------
--------9----
-------------
-------------
-------------


MIm                    DO              SI7
AY.. MI CORAZON ESTA EMPEZANDO A PADECER
                                   MIm
DESDE QUE YO TE CONOCI MI DULCE BIEN
                          DO           SI7
SEE.. QUE PARA MI ES MUY DIFICIL OLVIDAR
                                  MIm
TODO EL ENCANTO DE TU VOZ Y TU MIRAR
RE                                   SOL
VEN..MI AMOR QUE QUIERO SER TU ADORACION
  SI7                              MIm
YYYY..FORMAR NUESTRO NIDITO DE PASION
MIm                         DO                         SI7
VEN, VEN, VEN ETC...QUE LAS PALMERAS SABEN DE MI AMOR
                                MIm
VEN QUE MI ALMA YA NO PUEDE DE DOLOR
MIm        SI7          MI 
DAME TUS VESOS CON FRENESI
MIm     SI7          MIm
TESORO MIO DIME QUE SI
MIm       SI7              MIm
CON LAS PALMERAS YO E DE VIVIR
MIm          SI7           MIm
CON LAS  PALMERAS YO E DE MORIR


---7-----------------------------------------7----------7------
------8-10-7-8---7-------------------------7---10-10-10---7-8-7
---------------9---8-9-8-9--------------8----------------------9
----------------------------10-9-----9-------------------------
---------------------------------------------------------------
---------------------------------------------------------------


MIm                    DO              SI7
AY.. MI CORAZON ESTA EMPEZANDO A PADECER
                                   MIm
DESDE QUE YO TE CONOCI MI DULCE BIEN
                          DO           SI7
SEE.. QUE PARA MI ES MUY DIFICIL OLVIDAR
                                  MIm
TODO EL ENCANTO DE TU VOZ Y TU MIRAR
RE                                   SOL
VEN..MI AMOR QUE QUIERO SER TU ADORACION
  SI7                              MIm
YYYY..FORMAR NUESTRO NIDITO DE PASION


Cualquier duda al correo

            
            
Suggest correction
Creating personal tab
Creating personal tab
You can edit any tab online and save it as your Personal.

You can edit, replace or remove any tab part or add personal notes – all changes will be seen only by you.

Personal tabs can be accessed anytime from any device, even offline.
Learn more »
Give kudos to tab author, rate the tab!
1 2 3 4 5
comments
print report bad tab
guest
Wanna post a correction for this tab? Suggest correction