Oops, an error
Loading. Please wait.

Luna Tucumana tab

version 1
version 1

Whole song

118 views 3 this week
no commentswrite comment
1 2 3 4 5
3 more votes to show rating
add to favorites
×
Save as Personal and add changes to this tab that will be seen only by you. Learn more ›
×
You can save this tab as Personal to edit and correct it or add notes. All changes will be seen only by you. Learn more »
launch autoscroll
font size
0
reset
how to read this tab
guitar tuner
edit
Autoscroll
slow
fast
+/-
esc
set tempo
stop
                 MIm B7                  B7         MIm
1--------------------------------------------------------------
2--------------------------------------------------------------
3--------------------------------------------------------------
4-----2-2-2-2-2^5-5-4-4-4-4-4^7-----9-9-9-9-10-9---2-2-2-2-3-2-
5--------------------------------------------------------------
6---0--------------------------------------------0-------------

             LAm               SOL      B7       MIm     B7  MIm
1-------------------------------------3--------2----------2---0--
2------------------10--12--13--------3--------0-----------0---0--
3----9-9-9-12-10-9--9-9--9----------0--------2------------2---0--
4----------------------------------------------------2----1---2--
5---------------------------------------0-1-2----0^1^2----2---2--
6------------------------------0-2-3----------------------0---0--
  SI7               MIm
Yo no le canto a la luna
         SI7          MIm  MI7
porque alumbra y nada mas
   LAm               MIm
le canto porque ella sabe
      SI7       MIm
de mi largo caminar.

Ay lunita tucumana
tamborcito calchaquí
compañera de los gauchos
en las sendas de Tafí.

   RE7              SOL
Perdido en las cerrazones
             RE7                SOL       MI7
quien sabe vidita por donde andaré [5ta-0-1-2-]
      LAm           MIm
mas cuando salga la luna,
     SI7      MIm   MI7
cantaré, cantaré
  LAm           MIm
a mi Tucumán querido,
     SI7               MIm
cantaré, cantaré, cantaré.

Con esperanza o con pena,
en los campos de Acheral,
yo he visto la luna buena,
besando el cañaveral.

Si en algo nos parecemos,
luna de la soledad:
yo voy andando y cantando,
que es mi modo de alumbrar.

            
            
Suggest correction
Creating personal tab
Creating personal tab
You can edit any tab online and save it as your Personal.

You can edit, replace or remove any tab part or add personal notes – all changes will be seen only by you.

Personal tabs can be accessed anytime from any device, even offline.
Learn more »
Give kudos to tab author, rate the tab!
1 2 3 4 5
comments
print report bad tab
guest
Wanna post a correction for this tab? Suggest correction