Oops, an error
Loading. Please wait.

Paisaje De Catamarca tab

293 views 15 this week
no commentswrite comment
1 2 3 4 5
3 more votes to show rating
add to favorites
×
Save as Personal and add changes to this tab that will be seen only by you. Learn more ›
×
You can save this tab as Personal to edit and correct it or add notes. All changes will be seen only by you. Learn more »
launch autoscroll
font size
0
reset
how to read this tab
guitar tuner
edit
Autoscroll
slow
fast
+/-
esc
set tempo
stop
Intro:
            DO#     SOL#             DO#
1|-----------1--2-1---2-1-4--2-1-2----1-------|
2|-----1-2-4--------4---------------4---------|
3|-1-3----------------------------------------|
4|--------------------------------------------|
5|--------------------------------------------|
6|--------------------------------------------|

             DO#     SOL#           DO#    SOL# DO#
1|-----------1--2-1---2-1-4--2-1-2----2-------|
2|-----1-2-4--------4---------------4---------|
3|-1-3----------------------------------------|
4|--------------------------------------------|
5|--------------------------------------------|
6|--------------------------------------------|

DO#            LA#7      RE#m
Desde la cuesta del Portezuelo
         SOL#7            DO#
mirando abajo parece un sueño
un pueblito aquí, otro más allá,
y un camino largo que baja y se pierde
un pueblito aquí, otro más allá,
y un camino largo que baja y se pierde.

Hay un ranchito sombreao de higueras
y bajo el tala durmiendo un perro;
y al atardecer, cuando baja el sol,
una majadita volviendo del cerro
y al atardecer, cuando baja el sol,
una majadita volviendo del cerro.

Estribillo:
   DO#7          FA#
Paisajes de Catamarca
           SOL#7             DO#
con mil distintos tonos de verde
                 LA#7         RE#m
un pueblito aquí, otro más allá
            SOL#7                 DO#
y un camino largo que baja y se pierde.
               LA#7      RE#m
Lairaraaaaaaaaaaaa, Lairaraaaaaa
            SOL#7                 DO#
y un camino largo que baja y se pierde.

Intro:
1|-----------1--2-1---2-1-4--2-1-2----1-------|
2|-----1-2-4--------4---------------4---------|
3|-1-3----------------------------------------|
4|--------------------------------------------|
5|--------------------------------------------|
6|--------------------------------------------|

1|-----------1--2-1---2-1-4--2-1-2----2-------|
2|-----1-2-4--------4---------------4---------|
3|-1-3----------------------------------------|
4|--------------------------------------------|
5|--------------------------------------------|
6|--------------------------------------------|

Y ya en la villa del Portezuelo,
con sus costumbres tan provincianas:
el cañizo aquí, el tabaco allá,
y en la soga cuelgan quesillos de cabra
el cañizo aquí, el tabaco allá,
y en la soga cuelgan quesillos de cabra.

Con una escoba de pichanilla
una chinita barriendo el patio:
y sobre el nogal, centenario ya,
se oye un chalchalero que ensaya su canto
y sobre el nogal, centenario ya,
se oye un chalchalero que ensaya su canto .

Estribillo:
   DO#7          FA#
Paisajes de Catamarca
           SOL#7             DO#
con mil distintos tonos de verde
                 LA#7      RE#m
un pueblito aquí, otro más allá
            SOL#7                 DO#
y un camino largo que baja y se pierde.
               LA#7      RE#m
Lairaraaaaaaaaaaaa, Lairaraaaaaa
            SOL#7                 DO#
y un camino largo que baja y se pierde.


Espero que les haya gustado,
esta completa y con la nota de los chalchaleros.
Las dos intros son iguales, pero las copie para no tener que subir y
bajar el coso para leer y para poder tocar todo seguido.

            
            
Suggest correction
Creating personal tab
Creating personal tab
You can edit any tab online and save it as your Personal.

You can edit, replace or remove any tab part or add personal notes – all changes will be seen only by you.

Personal tabs can be accessed anytime from any device, even offline.
Learn more »
Give kudos to tab author, rate the tab!
1 2 3 4 5
comments
print report bad tab
guest
Wanna post a correction for this tab? Suggest correction