Oops, an error
Loading. Please wait.

El Anacleto Del Viento tab

281 views 1 this week
no commentswrite comment
1 2 3 4 5
3 more votes to show rating
add to favorites
×
Save as Personal and add changes to this tab that will be seen only by you. Learn more ›
×
You can save this tab as Personal to edit and correct it or add notes. All changes will be seen only by you. Learn more »
launch autoscroll
font size
0
reset
how to read this tab
guitar tuner
edit
Autoscroll
slow
fast
+/-
esc
set tempo
stop
Hola gente de la cuerda de vuelta yo GASTÓN  de salta capital
Esta vez les dejo la tablatura de esta excelente tema y se
La dedico al CAJ N° 3141 (Centro de Actividad Juvenil)de la Escuela
Tecnica N° 3141 , B° Ciudad del Milagro
Bueno como siempre digo, las buenas zambas siempre están en
tono menos y este es un claro ejemplo.
Sepan disculpar si hay herrores en la tabaltura y espero sugerencias
Dejo mi mail: catalejo_1@ Facebook: Caj Tecnica Cdm
Ahora si, no se habla mas y a tocarlo en la guitarra?
El Anacleto y el viento

1-------------------------------------------------------------
2----5--7-8br--7--5-----------------------5-------------------
3-------------------------4-4-4-4-4-----6---------4-4-4-4-4---
4-------------------------------------------------------------
5----3--5-7br--5--3-------------------------------------------
6----------------------3-------------5--------3--------------

1--------------I----------------0------------
2--------------I-----------0---------0-------
3-------2--4---I---------0---0-----0---0-----
4--------------I-------2---------------------
5----2---------I-----2-----------------------
6--------------I---0-------------------------


1------------------------------------------------------------
2----5--7-8br--7--5-----------------------5-----------------
3-----------------------4-4-4-4-4-----6----------4-4-4-4-4---
4------------------------------------------------------------
5----3--5-7br--5- 3-----------------------------------------
6--------------------3-------------5----------3--------------

1--------------I----------------0--------------I
2--------------I-----------0-------------------I
3-------2--4---I---------0---0-----------------I
4--------------I-------2------------------2----I
5----2---------I-----2---------------0h2-------I
6--------------I---0---------------------------I

Em               A -Em
Pobre anacleto cigarro
Am            F#7 B7
Ojitos de maripoosa
Em                  F#7
No le quedo ni pa?l vino
B7                 Em
Pero le sobran las rosas
D7                    G
No le queda ni pa?l vino
        B7            Em
Pero le sobran las rosas


La chala de su cigarro
Encendida desde el alba
Cada pitada es un grito
Que va consumiendo el alma

Bdim         E7       Am
 El es cantor bagualero
F#7                  B7
  De aquí de ninguna parte
Em                  F#7
  Pero le salta el bayisto
B7                Em
 Si le canta a cafayate
D7                G
 Pero le salta el bayisto
        B7          Em
Si le canta a cafayate


1------------------------------------------------------------
2------5--7-8br--7--5-----------------------5----------------
3--------------------------4-4-4-4-4-----6--------4-4-4-4-4--
4------------------------------------------------------------
5-2/3-----5-7br--5--3----------------------------------------
6-----------------------3-------------5--------3-------------

1--------------I----------------0------------
2--------------I-----------0---------0-------
3-------2--4---I---------0---0-----0---0-----
4--------------I-------2---------------------
5----2---------I-----2-----------------------
6--------------I---0-------------------------


1---------------------------------------
2----5--7--8-----8------8-----7-----5---
3---------------------------------------
4---------------------------------------
5----3--5----7------7------5-----3------
6---------------------------------------


1----------------------------------------------
2-------------------------5--------------------
3-------4-4-4-4-4------6----------4-4-4-4-4---
4----------------------------------------------
5----------------------------------------------
6---3------------- -5---------3----------------

1-------------I----------------0--------------I
2-------------I-----------0-------------------I
3------2--4---I---------0---0-----------------I
4-------------I-------2------------------2----I
5---2---------I-----2---------------0h2-------I
6-------------I---0---------------------------I


El anacleto es el viento
Paridor de desventura
Le soplan aires de muerte
Camino de la angostura

Con su sombrero azabache
Retoba?o como su dueño
Le van saliendo las coplas
Como si fueran de un sueño.

El es cantor bagualero
De aquí de ninguna parte
Pero le salta el bayisto
Si le canta a cafayate
Pero le salta el bayisto
Si le canta a cafayate

===================================================
Bueno espero que a todos los alumnos de la
Escuela Tecnica N°3141, B° Ciudad del Milagro le
Alla gustado y quien mas que el grupo los changos
Para interpretar esta hermosa obra musical.


        *******************
           ==GASTÓN==

            
            
Suggest correction
Creating personal tab
Creating personal tab
You can edit any tab online and save it as your Personal.

You can edit, replace or remove any tab part or add personal notes – all changes will be seen only by you.

Personal tabs can be accessed anytime from any device, even offline.
Learn more »
Give kudos to tab author, rate the tab!
1 2 3 4 5
comments
print report bad tab
guest
Wanna post a correction for this tab? Suggest correction