Oops, an error
Loading. Please wait.

Frio De Ausencia chords

version 1
version 1

Whole song

Interactive

100 views 1 this week
no commentswrite comment
1 2 3 4 5
3 more votes to show rating
add to favorites
×
Save as Personal and add changes to this tab that will be seen only by you. Learn more ›
×
You can save this tab as Personal to edit and correct it or add notes. All changes will be seen only by you. Learn more »
launch autoscroll
font size
0
reset
transpose
0
reset
display chords
guitar tuner
edit
Autoscroll
slow
fast
+/-
esc
set tempo
stop
Strumming
There is no strumming pattern for this song yet. and get +5 IQ
Introducción:

D,C,G

Riff Principal:

e--------------7-----------------------------------
B-------7-8-10---8----10-10-12-10--8-8-10-8--------
G---7-9--------------------------------------------
D--------------------------------------------------
A--------------------------------------------------
E--------------------------------------------------

Riff 1:

e--8--10-12-15-14----------------------------------
B--10-12-13-17-15----------------------------------
G--------------------------------------------------
D--------------------------------------------------
A--------------------------------------------------
E--------------------------------------------------

Riff 2:

e--15-14-12-10--8----------------------------------
B--17-16-13-12-10----------------------------------
G--------------------------------------------------
D--------------------------------------------------
A--------------------------------------------------
E--------------------------------------------------

D
La ví por última vez
         G
aquella tarde
               D
cuando mi alegría
                   G
poco a poco se alejaba.


D
Y el pobre corazón
                 G
melancólico y cobarde
                  D
al contemplar su rostro
    G
fallaba.

        D                               G
Sentí frío(Riff1) y era el frío de la ausencia(Riff2)
        D                 G
sentí miedo, miedo del olvido
          D           C           G
que penetraba en mi cuerpo su presencia
      D                     G
y sentirme ante ella confundido.

          D           C              G
Adiós le dije estrechándola en mis brazos
   D      G
adiós, adios.
 D           C              G
Adiós le dije estrechándola en mis brazos
   D      G
adiós, adios.

D,C,G
Riff Principal

D
Me iré ya por el camino
               G
de la vida incierta,
              D
dejando mi corazón
         G
en tu regazo
              D
para que lo guardes
                   G
como un cariño incierto
                 D
en el cofre encefálico
                   G
viviendo en tu recuerdo
             D
Mientras regreso
                 G
espero no haya muerto.


        D                               G
Siento frío(Riff1) y es el frío de la ausencia(Riff2)
        D                 G
siento miedo, miedo del olvido
       D       C           G
Pero llévame diario en tu recuerdo
      D                    G
exigiré si para ti yo he muerto.

      D          C            G
Regresaré a abrigarme con tu cuerpo
     D      G
mi bien, a ti.

            
            
Suggest correction
Creating personal tab
Creating personal tab
You can edit any tab online and save it as your Personal.

You can edit, replace or remove any tab part or add personal notes – all changes will be seen only by you.

Personal tabs can be accessed anytime from any device, even offline.
Learn more »
Give kudos to tab author, rate the tab!
1 2 3 4 5
comments
print report bad tab
guest
Wanna post a correction for this tab? Suggest correction