Oops, an error
Loading. Please wait.

Flores En Febrero tab

version 2
version 2

Whole song

308 views 1 this week
no commentswrite comment
1 2 3 4 5
1 last vote to show rating
add to favorites
×
Save as Personal and add changes to this tab that will be seen only by you. Learn more ›
×
You can save this tab as Personal to edit and correct it or add notes. All changes will be seen only by you. Learn more »
launch autoscroll
font size
0
reset
how to read this tab
guitar tuner
edit
Autoscroll
slow
fast
+/-
esc
set tempo
stop
****IMPORTANTE! El rasgueo debe de ser constante de arriba hacia abajo,
chequeen mi video del cover para cualquier duda.


@AMedellinHdz

Intro (Opcional el Capo en el 2ndo traste,
aunque usarlo facilita mucho tocar la Intro)

  A
e|--------------------------|
B|--3/5-3--2----------------|
G|--4/6-4--2--2h4p2---------|
D|-------------------4-2----|
A|--------------------------|
E|--------------------------|

  Bm
e|--------------------------|
B|--3/5-3--2----------------|
G|--4/6-4--2--2h4p2---------|
D|-------------------4-2----|
A|--------------------------|
E|--------------------------|

  D
e|--------------------------|
B|--------------------------|
G|--------------------------|
D|--------------------------|
A|--7h9---------------------|
E|-------5h7----------------|

  A
e|--------------------------|
B|--3/5-3--2----------------|
G|--4/6-4--2----------------|
D|--------------------------|
A|--------------------------|
E|--------------------------|

  A
Como lluvia de la capital
e|--------------------------|
B|--3/5-3--2----------------|
G|--4/6-4--2--2h4p2---------|
D|-------------------4-2----|
A|--------------------------|
E|--------------------------|

  Bm
Como recreo antes de un final
e|--------------------------|
B|--3/5-3--2----------------|
G|--4/6-4--2--2h4p2---------|
D|-------------------4-2----|
A|--------------------------|
E|--------------------------|

  D
Como abrazo de año nuevo
e|--------------------------|
B|--------------------------|
G|--------------------------|
D|--------------------------|
A|--7h9---------------------|
E|-------5h7----------------|

 A
como flores en febrero

Guitarra eléctrica (CON CAPO en el 2ndo traste)
  A (G con capo)
e|-------------------------|
B|--3/5-3/2----------------|
G|--4/6-4/2--4p2h4---------|
D|-----------4p2h4---------|
A|-------------------------|
E|-------------------------|

  Bm (Am con capo)
e|-------------------------|
B|--3/5-3/2----------------|
G|--4/6-4/2--4p2h4---------|
D|-----------4p2h4---------|
A|-------------------------|
E|-------------------------|

  D (C con capo)
e|-------------------------|
B|--3/5-3/2----------------|
G|--4/6-4/2--4p2h4---------|
D|-----------4p2h4---------|
A|-------------------------|
E|-------------------------|

  A (G con capo)
e|-------------------------|
B|--3/5-3/2----------------|
G|--4/6-4/2--4p2h4---------|
D|-----------4p2h4---------|
A|-------------------------|
E|-------------------------|

Verso

A
Perdón no pude controlarme (D|--7h9-------|)
Bm
aprendí a fallar en el peor instante (D|--7h9-------|)
D
y ahí estabas, A|--7h9---------------------|
               E|-------5h7----------------|
A
ahí estabas (D|--7h9-------|)

(Se repiten los fills del verso pasado)
A                                 Bm
Y no, no siempre soy lo que aparento
                    D
por fuera soy más grande,

 A
contigo caigo por dentro
D        E
Pronto pasó, desde que llegaste

Coro (Se pueden hacer los mismos fills que en los versos)

 A
Como lluvia de la capital,
 Bm
como recreo antes de un final,
 D
como abrazo de año nuevo,
 A
como flores en febrero,
 A               Bm
como relámpago, como un avión,
D                           A
tú llegaste y encontré el amor.


(Se repite la intro de guitarra electrica)

Verso (fills?)

A                          Bm
Perdón, no batallaste en sonreír,
                   D
no supe que mas decir sin saber tu nombre
A
un beso te di.
A                                   Bm
Es hoy, el día que siempre había esperado,
                            D
los libros me lo habían contado,
                  A
te he buscado tanto.
D        E
Pronto pasó, desde que llegaste.

Coro (Fills..)

A
Como lluvia de la capital,
 Bm
como recreo antes de un final,
 D
como abrazo de año nuevo,
 A
como flores en febrero,
 A               Bm
como relámpago, como un avión,
D                           A
tú llegaste y encontré el amooooor

Solo (Está en la 3era,4ta y 5ta pentatonica de F#m)
Acordes A Bm D A D E)

e|---------------------------------------------|
B|---------------------------------------------|
G|---9b11r9p7----------------------------------|
D|------------9-7-9b11r9p7----7-9-9b9b9r7--7---|
A|--------------------------9-------------9----|
E|---------------------------------------------|

e|----------------------10---------------10---------------12h14-|
B|-------10-----10--/14----14p10---10--10--10-14p10-14-12-------|
G|-6-6/7----9/11-----------------11-----------------------------|
D|--------------------------------------------------------------|
A|--------------------------------------------------------------|
E|--------------------------------------------------------------|

e|-10------------------------------8-9-----------------------------|
B|----13/12p10-13/12p10------10-10-----10-8--10-10--10-10----10----|
G|----------------------11-9------------------9--9---9--9b11-11b14-|
D|-----------------------------------------------------------------|
A|-----------------------------------------------------------------|
E|-----------------------------------------------------------------|

A
Como lluvia de la capital,
 Bm
como recreo antes de un final,
 D
como abrazo de año nuevo,
 A
como flores en febrero,
 A               Bm
como relámpago, como un avión,
D                           A
tú llegaste y encontré el amor.
            A
Taraptaptapta
           Bm
Taraptaptapta
         D
tú llegaste
                   A
y yo encontré, y encontré.
     Bm    D
tú llegaste

            
            
Suggest correction
Creating personal tab
Creating personal tab
You can edit any tab online and save it as your Personal.

You can edit, replace or remove any tab part or add personal notes – all changes will be seen only by you.

Personal tabs can be accessed anytime from any device, even offline.
Learn more »
Give kudos to tab author, rate the tab!
1 2 3 4 5
comments
print report bad tab
guest
Wanna post a correction for this tab? Suggest correction