Oops, an error
Loading. Please wait.

Un Ratito tab

137 views 1 this week
no commentswrite comment
1 2 3 4 5
3 more votes to show rating
add to favorites
×
Save as Personal and add changes to this tab that will be seen only by you. Learn more ›
×
You can save this tab as Personal to edit and correct it or add notes. All changes will be seen only by you. Learn more »
launch autoscroll
font size
0
reset
how to read this tab
guitar tuner
edit
Autoscroll
slow
fast
+/-
esc
set tempo
stop
En general, yo ya había sacado la canción y me dí cuenta que ya
la habían posteado, así que simplemente usaré la transcripción del
que la puso antes y les agregaré el solo.
Hice en video el cover, se los subiré después o envíenme un mensaje
a hugomiztli@ para que se los pase.
Cualquier duda comenten en el video en YouTube.


C Em F
C Em F

C
Gema, pedazo de estrella,
           Em F
Vestido de seda pegándose al cuerpo, un beso que beso,
C
Verdad, pecado sin pena,
              Em F
Huella en la arena, un hoyo en las nubes con sol,
Em       F              G               Am
Remas y llegas del horizonte hasta mis venas
            Em         Dm                  Em
Abriéndote paso en el ocaso para regalar amor

   F         G       C   Dm    F   G      C     Em F
Te vi, te miré y me enamoré de ti,   un ratito

C
Velas, puño de perlas,
           Em F
Línea de estela, un ángel cayendo lento,
C
Hebras de almas gemelas,
               Em F
Trensándoze a leguas uniendo la luna y el sol,
Em         F            G                Am
Remas y llegas del horizonte hasta mis venas
            Em         Dm                  Em
Abriéndote paso en el ocaso para regalar amor

   F         G        C  Dm
Te vi, te miré y me enamoré,
   F         G        C  Dm     F  G
Te vi, te miré y me enamoré de ti,
      C         Dm
Un ratito, un ratito,
      C         Dm
Un ratito, un ratito.

Solo.
RIFF 1

E|---------8------8--8------8h10--10/12--10--
B|--8--10-----10--------10-------------------
G|-------------------------------------------
D|-------------------------------------------
A|-------------------------------------------
E|-------------------------------------------


E|--12h15--15----15--12----10--8--------10/12--10--8-------
B|----------------------------------10------------------8--
G|---------------------------------------------------------
D|---------------------------------------------------------
A|---------------------------------------------------------
E|---------------------------------------------------------

RIFF 2 (Solo se toca lo del principio sin la parte siguiente)

E|---------8------8--8------8h10--10/12--10--
B|--8--10-----10--------10-------------------
G|-------------------------------------------
D|-------------------------------------------
A|-------------------------------------------
E|-------------------------------------------

En general, se repite muchas veces hasta que acabe la canción,
es solo seguir el circulo y listo.

            
            
Suggest correction
Creating personal tab
Creating personal tab
You can edit any tab online and save it as your Personal.

You can edit, replace or remove any tab part or add personal notes – all changes will be seen only by you.

Personal tabs can be accessed anytime from any device, even offline.
Learn more »
Give kudos to tab author, rate the tab!
1 2 3 4 5
comments
print report bad tab
guest
Wanna post a correction for this tab? Suggest correction