Oops, an error
Loading. Please wait.

No Usemos Ropa bass

32 views 1 this week
no commentswrite comment
1 2 3 4 5
3 more votes to show rating
add to favorites
×
Save as Personal and add changes to this tab that will be seen only by you. Learn more ›
×
You can save this tab as Personal to edit and correct it or add notes. All changes will be seen only by you. Learn more »
launch autoscroll
font size
0
reset
guitar tuner
edit
Autoscroll
slow
fast
+/-
esc
set tempo
stop
K tal a ki dejándoles esta rola super buena.
La tab esta al cien y ya saben cualquier rola
ay mándenme un mail ezkoria_
Solo escuchen el ritmo suerte ke la disfruten.
y dejen una buena calficacion ja

intro

E|-55555555-77777777-9999999999999999--|
A|-------------------------------------|
D|-------------------------------------|
G|-------------------------------------|

Verso 1

E|-55555555-77777777-9999999999999999--------9|
E|------------------------------------9999-7--| x4
D|--------------------------------------------|
G|--------------------------------------------|

Verso 2

E|-------------------------------------------|
A|-------------------------------------------|  x3
D|-77777777-99999999-11-11-11-11-11-11-11-11-|
G|-------------------------------------------|

E|-------------------------------------|
A|-------------------99999999----------|
D|-77777777-99999999-------------------|
G|-------------------------------------|

Verso 1

E|-55555555-77777777-9999999999999999--------9|
A|------------------------------------9999-7--| x4
D|--------------------------------------------|
G|--------------------------------------------|

E|-2---2-----------|
A|---5---5-55555555|  x2
D|-----------------|
G|-----------------|

Inter

se queda la lira y la bataca despues entra el bajo con esto

E|-22-2-22-2-22-22-2--------------------|
A|-------------------55-5-55-5-55-5-55--|
D|--------------------------------------|
G|--------------------------------------|

E|-22-2-22-2-22-22-2----------------------------------|
A|-------------------55-5-55-5-55-5-55-55-555-55-5-555|
D|----------------------------------------------------|
G|----------------------------------------------------|

Verso 1

E|-55555555-77777777-9999999999999999--------9|
A|------------------------------------9999-7--| x4
D|--------------------------------------------|
G|--------------------------------------------|

final

E|-5-5555555-7-7777777-5-5555555-7-7777777--|
A|------------------------------------------|
D|------------------------------------------|
G|------------------------------------------|

E|-7-7777777777777777-(5)-|
A|------------------------|
D|------------------------|
G|------------------------|


por carlos eskoria_skt@ si nesesitan otra rola
de los concorde avisenme para subirlas!!!

            
            
Suggest correction
Creating personal tab
Creating personal tab
You can edit any tab online and save it as your Personal.

You can edit, replace or remove any tab part or add personal notes – all changes will be seen only by you.

Personal tabs can be accessed anytime from any device, even offline.
Learn more »
Give kudos to tab author, rate the tab!
1 2 3 4 5
comments
print report bad tab
guest
Wanna post a correction for this tab? Suggest correction