Oops, an error
Loading. Please wait.

El Flechazo bass

44 views 1 this week
no commentswrite comment
1 2 3 4 5
3 more votes to show rating
add to favorites
×
Save as Personal and add changes to this tab that will be seen only by you. Learn more ›
×
You can save this tab as Personal to edit and correct it or add notes. All changes will be seen only by you. Learn more »
launch autoscroll
font size
0
reset
guitar tuner
edit
Autoscroll
slow
fast
+/-
esc
set tempo
stop
BUENO PUES ESTA ROLA ESTA EN EL TONO DE SOL
Y PUES EL BAJEO ESTA MUY SENCILLITO
NO SE SI ME SALDRIA BIEN PORQUE SOY NUEVO EN EL BAJO
 JAJAJA DE ECHO NO TENGO UN BAJO
LO SAKE CON UNA GUITARRA JAJAJA .
SALE HAY SE LOS DEJO ESPERO Y K LES SIRVA. Y ARRIVA SONORA

REKINTO
G----------------------------------------------------------------------
D-----9--12------9--12-------------------------------------------------
A-10---------10-------------9--12------9--12------9--12------9--12--10-
E-----------------------10---------10---------10---------10------------

G-----------------------
D--9--12------9--12-----
A---------10------------
E-----------------------

TE CONOCI ME QUEDE CAUTIVADO
G----------------------------------------------
D------9--12----------------------------9--12--
A--10-------------9--12------9--12--10---------
E-------------10---------10--------------------

G--------------------------------------
D--------------------------------------
A--10-10--9----------9--12------9--12--
E------------12--10---------10---------

G---------------------------------------
D------9--12----------------------------
A--10---------10--10--9----------9--12--
E------------------------12--10----------

G----------------------------------------
D---------------9--12--------------------
A----9--12--10---------10--10--9---------
E-10------------------------------12--10-

G-----------------------------------------------
D--------------------12-12-12--10---------------
A--9--12------9--12----------------12--10-------
E---------10------------------------------------

Y NO PIENSES QUE SOY UN CONQUISTADOR
G-----------------------------------
D------9--12------9--12------9--12--
A--10---------10---------10---------
E------------------------------------

G----------------------------------------------
D----------------------------------------------
A------9--12------9--12------9--12------9---12-
E--10---------10---------10---------10---------

G-------------------------------------------------
D------9--12------9--12------9--12----------------
A--10---------10---------10---------10--10--9-----
E----------------------------------------------12--

G---------------------------------
D---------------------------------
A-----9--12------9--12------9--12-
E-10---------10---------10--------

G-----------------------
D----------------9--12--
A-----9--12--10---------
E-10--------------------

FUE UN FLECHAZO EN EL BLANCO
G--------------------------------------
D-----9--12------9--12-----------------
A-10---------10---------10--10--9------
E----------------------------------12--

G----------------------------------------------
D----------------------------------------------
A------9--12------9--12------9--12------9--12--
E--10---------10---------10---------10---------

G-------------------------------------------------
D------9--12------9--12------9--12----------------
A--10---------10---------10---------10--10--9-----
E----------------------------------------------12-

G-----------------------------------
D-----------------------------------
A------9--12------9--12------9--12--
E--10---------10---------10---------

G-----------------
D-----------------
A------9--12--10--
E--10-------------

PUES HAY KEDO. nomas le chacan el tiempo de cuando entran los tonos
ESO ES TODO y pues SE REPITE toda DESDE EL INICIO.
SALE PUES HAY KLEDO LA ROLITA AVER SI LES GUSTA OJALA QUE SI.
SALE PUES NOS VEMOS.
CUALKIER DUDA o comentario MI CORREO ES
JESUS_TEPACHE@

ARRIVA TEPACHE, SONORA

            
            
Suggest correction
Creating personal tab
Creating personal tab
You can edit any tab online and save it as your Personal.

You can edit, replace or remove any tab part or add personal notes – all changes will be seen only by you.

Personal tabs can be accessed anytime from any device, even offline.
Learn more »
Give kudos to tab author, rate the tab!
1 2 3 4 5
comments
print report bad tab
guest
Wanna post a correction for this tab? Suggest correction