Oops, an error
Loading. Please wait.

El Manisero tab

version 1
version 1

Whole song

1,244 views 18 this week
no commentswrite comment
1 2 3 4 5
3 more votes to show rating
add to favorites
×
Save as Personal and add changes to this tab that will be seen only by you. Learn more ›
×
You can save this tab as Personal to edit and correct it or add notes. All changes will be seen only by you. Learn more »
launch autoscroll
font size
0
reset
how to read this tab
guitar tuner
edit
Autoscroll
slow
fast
+/-
esc
set tempo
stop
Una guitarra siempre acompaña en F# y C#7


                       F#
e |--------------------2---------|
B |-----------2-2---2--2---------|
G |-----1-3-4-----4----3---------|  Mire no mas, mire nomas
D |-4-4--------------------------|
A |------------------------------|
E |------------------------------|
                       F#
e |--------------------2---------|
B |-----------2-2---2--2---------|
G |-----1-3-4-----4----3---------|  Zapatéllele
D |-4-4--------------------------|
A |------------------------------|
E |------------------------------|


e |---------------------1-2-2------1--1-1------2-2------1--1-1------2-2---|
B |-----------2--2-2--4--------2-4---------2-4------2-4---------2-4-------|
G |-----1-3-4-------------------------------------------------------------|
D |-4-4-------------------------------------------------------------------|
A |-----------------------------------------------------------------------|
E |-----------------------------------------------------------------------|


e |------1--1-1------2-2------1--1-1------2-2------1--1-1------2-2--------|
B |--2-4---------2-4------2-4---------2-4------2-4---------2-4------------|
G |-----------------------------------------------------------------------|
D |-----------------------------------------------------------------------|
A |-----------------------------------------------------------------------|
E |-----------------------------------------------------------------------|


e |------1--1-1------2-2------1--1-1------2-2---|
B |--2-4---------2-4------2-4---------2-4-------|
G |---------------------------------------------|
D |---------------------------------------------|
A |---------------------------------------------|
E |---------------------------------------------|


e |------1-1------2-2------1-1------2-2------1-1------2-2---|
B |--2-4------2-4------2-4------2-4------2-4------2-4-------|
G |---------------------------------------------------------|
D |---------------------------------------------------------|
A |---------------------------------------------------------|
E |---------------------------------------------------------|


e |------1-1------2---2---4---4---6---6---7---7---9---9-9--|
B |--2-4------2-4---4---4---4---4---4---4---4---4---4--4---|
G |--------------------------------------------------------|
D |--------------------------------------------------------|

e |-----11-9-11-9-11-9-11-9-|
B |-------------------------|
G |-------------------------|


otra guitarra esta tocando esto:

   h= golpear
   p= jalar
   *= mantener la nota

e |---------|
B |-2h4p2*--| " varias veces muy rápido "
G |---------|
D |---------|


mientras la otra sigue tocando


         C#
e|--11---9---11---9--|
B|-------------------| como arriba con ritmo en vez de tocar los acordes
G|-------------------|


luego sigue igual q la otra cuando se escucha una muy breve pausa:

esta parte es toda velocidad y ritmo

   *= mantener la nota

                                  x15 veces       x15 veces + ó -
e |---------------------------------|----------|----------1----------2--|
B |-2-2h4p2*---2-2h4p2*---2-2h4p2*--|--2h4p2*--|--2-2h4p2----2-2h4p2----|
G |---------------------------------|----------|------------------------|
D |---------------------------------|----------|------------------------|

luego es trinado:
                                                                  C#
e |------------9---------11-------13------14------16------18------21--|
B |--2/---------------------------------------------------------------|
G |-------------------------------------------------------------------|
D |-------------------------------------------------------------------|
A |-------------------------------------------------------------------|
E |-------------------------------------------------------------------|


despues de esto sigue trinado pero donde ya no hay traste
se va por la cuerda hasta el hueso

   yo toco la canción con un capo en el taste 1 para ganar velocidad
ya que no toco el traste 1 sino toco la cuerda al aire...


el ritmo tócalo con el capo en el traste 1 tambien es mas fácil usa:

     F#       C#
e |--2--------0(1)-----------|
B |--2--------2--------------|
G |--3--------4--------------|
D |--4--------3--------------|
A |--4--------4--------------|
E |--2--------x--------------|

            
            
Suggest correction
Creating personal tab
Creating personal tab
You can edit any tab online and save it as your Personal.

You can edit, replace or remove any tab part or add personal notes – all changes will be seen only by you.

Personal tabs can be accessed anytime from any device, even offline.
Learn more »
Give kudos to tab author, rate the tab!
1 2 3 4 5
comments
print report bad tab
guest
Wanna post a correction for this tab? Suggest correction