Oops, an error
Loading. Please wait.

La Polvadera tab

version 2
version 2

Whole song

42 views 1 this week
no commentswrite comment
1 2 3 4 5
3 more votes to show rating
add to favorites
×
Save as Personal and add changes to this tab that will be seen only by you. Learn more ›
×
You can save this tab as Personal to edit and correct it or add notes. All changes will be seen only by you. Learn more »
launch autoscroll
font size
0
reset
how to read this tab
guitar tuner
edit
Autoscroll
slow
fast
+/-
esc
set tempo
stop
Intro:

e/--12-10-9-10-9-7-9-7-5-7-5-4-5 (A=X1) Se marca A una vez

D/--2-0---0-----------------
A/------4--4-2-4-2-0-2-0---0
E/-----------------------4--

       A                           E7
e/-----5-5-4-5--0-0-5-5-4-5--0-0-5-5-4-5-4-2-4-2-0-2-0-----
B/--5-5------------------------------------------------3-5-
      A                         E7
B/------5-5-3-5-----5-5-3-5-----5-5-3-5-3-2-3-2-0--
G/--4-4---------4-4---------4-4-------------------2


Otra vez lo mismo

e/-----5-5-4-5--0-0-5-5-4-5--0-0-5-5-4-5-4-2-4-2-0-2-0-----
B/--5-5------------------------------------------------3-5-

B/------5-5-3-5-----5-5-3-5-----5-5-3-5-3-2-3-2-0--
G/--4-4---------4-4---------4-4-------------------2

e/-----------------------------------------------------
B/-----------------------------------------------------
G/------------------------------------2-1-2-4-2-4-6-4-6
D/------------------2-0-2-4-2-4-6-4-6--
A/-2-0-2-4-2-4-5-4-5-------------------


e/-------------2---2-4-2-4-5--4-4-7-4-4-5--4-4-7-4-4-5
B/--3-2-3-5-3-5--5-----------------------------------

*Esto es muy rápido
   A
e/-5-4-2-0---------------------
B/--------3-2-0----------------
G/--------------2-1------------
D/------------------4-2-0------
A/-----------------------4-2-0-


A             E7                         A
Esta noche me voy al baile a levantar una polvadera
A             E7                         A
esta noche me voy al baile a levantar una polvadera
D                 A                 E7           A
porque van a estar los cuates tocando la canelera
D                 A                 E7           A
porque van a estar los cuates tocando la canelera

A                E7                   A
Le tocaron un beso al viento me puse romanticón
A                E7                   A
le tocaron un beso al viento me puse romanticón
D             A          E7           A
y con este zapateado se me alegra el corazón
D             A          E7           A
y con este zapateado se me alegra el corazón

Intro?

A             E7                                  A
Ayer tenía ganas de verte fui a tu casa y tu no estabas
A             E7                                  A
ayer tenía ganas de verte fui a tu casa y tu no estabas
A      D                A            E7           A
me salió tu  perro hambriento me ladraba y  me ladraba
A        D          A            E7            A
me agarro de los calzones y me puso una revolcada

                 E7                   A
ya con esta me despido ya me voy a retirar
             E7                          A
de toditos mis amigos que ahora voy a mencionar
  D          A             E7          A
de Sonora, Sinaloa, de Jalisco, Y Michoacán
  D           A             E7         A
Nayarit y Guanajuato Zacatecas por igual
D            A                  E7              A
disculpen me mis amigos que no alcancé a mencionar


Final:

e/--12-10-9-10-9-7-9-7-5-7-5-4-5

D/--2-0---0----------------- [A=X2] Se marca A dos veces
A/------4--4-2-4-2-0-2-0---0
E/-----------------------4--

Hay quedó la canción esta muy suave escúchenla, está versión es bien,
un saludo para los de Chihuahua, en especial para mi compa Erick.

            
            
Suggest correction
Creating personal tab
Creating personal tab
You can edit any tab online and save it as your Personal.

You can edit, replace or remove any tab part or add personal notes – all changes will be seen only by you.

Personal tabs can be accessed anytime from any device, even offline.
Learn more »
Give kudos to tab author, rate the tab!
1 2 3 4 5
comments
print report bad tab
guest
Wanna post a correction for this tab? Suggest correction