Oops, an error
Loading. Please wait.

C.j. tab

version 4
version 4

Whole song

20 views 1 this week
no commentswrite comment
1 2 3 4 5
3 more votes to show rating
add to favorites
×
Save as Personal and add changes to this tab that will be seen only by you. Learn more ›
×
You can save this tab as Personal to edit and correct it or add notes. All changes will be seen only by you. Learn more »
launch autoscroll
font size
0
reset
how to read this tab
guitar tuner
edit
Autoscroll
slow
fast
+/-
esc
set tempo
stop
 Mi primera colaboración espero que les guste:
INTRO:
E--------------------------------
A----0--2--3-------------3-------
D-------------2-------2-----1/2--
G---------------4--2-------------
B--------------------------------
e--------------------------------

E--------------------------------
A----0--2--3-------------3-------
D-------------2-------2-----2----
G---------------4--2-------------
B--------------------------------
e--------------------------------

E-------------|-------------------
A-------------|-------------------
D----------2--|-------------1-----
G--4-4--2-----|-44-4--2-4-2-------
B-------------|-------------------
e-------------|-------------------

E--------------|------------------
A--------------|------------------
D--------------|------------------
G--4-4-2-4-5-7-|-7-6-5-4/5-4--9---
B--------------|--------------9---
e--------------|--------------7---

Am                     Am
Tengo un lugar lejos de todo
                           E
lejos, nunca nadie estuvo ahí
    Am         *A,*A#,*B
lo guardo aquí
Cm
dentro de mí
        Bm         Bm        E
no hay tiempo, ni prisa, ni fin

   A
Vivir allí con vos
  C#m
crecer juntos los dos
D          Bm       E
olvidarnos todo, morir de amor
   A            C#m
saber si hay, vida normal
   A         D        E
afueeeera de mi    soledad

E--------------------------------
A----0--2--3-------------3-------
D-------------2-------2-----1/2--
G---------------4--2-------------
B--------------------------------
e--------------------------------

E--------------------------------
A----0--2--3-------------3-------
D-------------2-------2-----2----
G---------------4--2-------------
B--------------------------------
e--------------------------------

E-------------|-------------------
A-------------|-------------------
D----------2--|-------------1-----
G--4-4--2-----|-44-4--2-4-2-------
B-------------|-------------------
e-------------|-------------------

E---------------|------------------
A---------------|------------------
D---------------|------------------
G--44-4-2-4-5-7-|-7-6-5-4/5-4---9--
B---------------|---------------9--
e---------------|---------------7--

Am                     Am
No le tengas miedo al abismo
                         E
es el vacío despues de reír
   Am         *A,*A#,*B
lo llevo aquí
Cm
dentro de mí
   Bm           Bm          E
no hay tiempo, ni prisa, ni fin

   A
Vivir allí con vos
   C#m
crecer juntos los dos
D          Bm       E
olvidarnos todo, morir de amor
   A                C#m
saber que no hay, vida normal
   A           D         E
afueeeera de mi   soledad.

E--------------------------------
A----0--2--3-------------3-------
D-------------2-------2-----1/2--
G---------------4--2-------------
B--------------------------------
e--------------------------------

E--------------------------------
A----0--2--3-------------3-------
D-------------2-------2-----2----
G---------------4--2-------------
B--------------------------------
e--------------------------------

E-------------|-------------------
A-------------|-------------------
D----------2--|-------------1-----
G--4-4--2-----|-44-4--2-4-2-------
B-------------|-------------------
e-------------|-------------------

E---------------|------------------
A---------------|------------------
D---------------|------------------
G--44-4-2-4-5-7-|-7-6-5-4/5-4---9--
B---------------|---------------9--
e---------------|---------------7--

FINAL
primero van los acordes y despues el rift, mas "no junto"
Am Bm Am
Am C#m Em

E----------0-|-------------0------
A---2-2--0---|-22--2-0-2-0--------
D------------|--------------------
G------------|--------------------
B------------|--------------------
E------------|--------------------

E----------------|----------------
A---2-2--0-2-3-5-|-5-4-3-2/3-2----
D----------------|----------------
G----------------|----------------
B----------------|----------------
E----------------|----------------


En estas partes lleva un adorno al final de cada una
1-Tengo un lugar lejos de todo
2-No le tengas miedo al abismo
3-Final Am Bm Am

E--0-3-0-1-0~--

Eso es todo, en la canción suena mejor si tocas solo los cambios
y con un solo acorde. Suerte dudas surf_tiky@ desde Atizapan
de Zaragosa pronto mas aportes.

            
            
Suggest correction
Creating personal tab
Creating personal tab
You can edit any tab online and save it as your Personal.

You can edit, replace or remove any tab part or add personal notes – all changes will be seen only by you.

Personal tabs can be accessed anytime from any device, even offline.
Learn more »
Give kudos to tab author, rate the tab!
1 2 3 4 5
comments
print report bad tab
guest
Wanna post a correction for this tab? Suggest correction