Oops, an error
Loading. Please wait.

Estoy Harto De Verte Con Otros bass

version 1
version 1

Whole song

314 views 1 this week
no commentswrite comment
1 2 3 4 5
3 more votes to show rating
add to favorites
×
Save as Personal and add changes to this tab that will be seen only by you. Learn more ›
×
You can save this tab as Personal to edit and correct it or add notes. All changes will be seen only by you. Learn more »
launch autoscroll
font size
0
reset
guitar tuner
edit
Autoscroll
slow
fast
+/-
esc
set tempo
stop
INTRO:
G|-------7-0---------------------------------------------|
D|---0-0-----7-5-----------------------------------------|
A|-------------------------------------------------------|
E|-------------------------------------------------------|


G|-------------------------------------------------------|
D|-----2-5-2---2--------------5-3-2-0--------------------|
A|---3-------3---3-0----2-5-2----------------------------|
E|--------------------3----------------------------------|


G|-------------------------------------------------------|
D|----0-3-0---0-3-0-----------5-3-2-5--------------------|
A|--1-------1----------0-3-0-----------------------------|
E|-------------------1-----------------------------------|


Salgo?
G|-------------------------------------------------------|
D|-----2-5-2---2--------------5-3-2-0--------------------|
A|---3-------3---3-0----2-5-2----------------------------|
E|--------------------3----------------------------------|


Mas despierto?
G|-------------------------------------------------------|
D|----0-3-0---0-3-0-----------5-3-2-5--------------------|
A|--1-------1----------0-3-0-----------------------------|
E|-------------------1-----------------------------------|


La lluvia?
G|-------------------------------------------------------|
D|-----2-5-2---2--------------5-3-2-0--------------------|
A|---3-------3---3-0----2-5-2----------------------------|
E|--------------------3----------------------------------|


Y en este tren?
G|-------------------------------------------------------|
D|----0-3-0---0-3-0-----------5-3-2-5--------------------|
A|--1-------1----------0-3-0-----------------------------|
E|-------------------1-----------------------------------|

Y subo al tren?
G|-------------------------------------------------------|
D|---0-3-5-3-2-0------------3-3-3-3----------------------|
A|-1-------------3----0-3-0---------3-3-0----------------|
E|------------------1------------------------------------|

Y veo tu cara?
G|-------------------------------------------------------|
D|---0-3-5-3-2-0------------3-3-3-3----------------------|
A|-1-------------3----0-3-0---------3-3-0----------------|
E|------------------1------------------------------------|
Esto es igual?
G|-------------------------------------------------------|
D|-------------------------------------------------------|
A|-----2-5-2----3-6-3-5----------------------------------|
E|---3--------4------------------------------------------|

Quiero estar?
G|-------7-0---------------------------------------------|
D|---0-0-----7-5-0-5-7-7---------------------------------|
A|-------------------------------------------------------|
E|-------------------------------------------------------|


Es toda la cancion así, obviamente tienen que cachar en que
momento va cada parte, y el tiempo que va pasando, no les puedo
poner la cancion entera, me tengo que ir.
En algún momento puede tener pequeñísimas variaciones,
pero igual está muy buena.
Saludos a todos los fans de los Cadillacs!!

¡Shop!

            
            
Suggest correction
Creating personal tab
Creating personal tab
You can edit any tab online and save it as your Personal.

You can edit, replace or remove any tab part or add personal notes – all changes will be seen only by you.

Personal tabs can be accessed anytime from any device, even offline.
Learn more »
Give kudos to tab author, rate the tab!
1 2 3 4 5
comments
print report bad tab
guest
Wanna post a correction for this tab? Suggest correction