Oops, an error
Loading. Please wait.

Siguiendo La Luna tab

version 2
version 2

Whole song

Interactive

157 views 1 this week
no commentswrite comment
1 2 3 4 5
3 more votes to show rating
add to favorites
×
Save as Personal and add changes to this tab that will be seen only by you. Learn more ›
×
You can save this tab as Personal to edit and correct it or add notes. All changes will be seen only by you. Learn more »
launch autoscroll
font size
0
reset
how to read this tab
guitar tuner
edit
Autoscroll
slow
fast
+/-
esc
set tempo
stop
Author
Difficulty
INTRO:   Em - D - Em - D - [D - Em]


e|-------------------------|
B|---7---------7-----------|
G|-----9----------9--------|
D|--------9----------7-----|
A|-------------------------|
E|-------------------------|


                               D
Siguiendo la luna no llegaré lejos
                           Em
Tan lejos como se pueda llegar
                                D
Las cosas que dije no tienen sentido
                        C       G
No puedo detenerme ponerme a pensar

Em                                D
Siguiendo la luna y su vuelta invisible
                              Em
La noche seguro que me alcanzará
                                 D
No es que tu mirada me sea imposible
                  C           G
Tan sólo es la forma como caminas


C                               G
Vamos mi cariño que todo está bien
                 Bm                   D
Esta noche cambiaré te juro que cambiaré
C                             G
Vamos mi cariño ya no llores más
                         Bm                   D
Por vos yo bajaría el sol o me hundiría en el mar
           C              G   [G - Em]
Y esto parece verdad para mi
                      
                                        D
Suena como un crimen lo que tú me has hecho
                            Em(Arreglo 1)
Deberías ir a parar a la prisión
                                     D
Suena como un crimen que me hayas mentido
                C             G
Que hayas engañado a este corazón

Em                             D
Siguiendo la luna no llegaré lejos
                           Em(Arreglo 2)
Tan lejos como se pueda llegar
                          D
Son casi las 4 de la madrugada
              C               G
Mi casa brillaba cruzando ese mar


Arreglo 1                     Arreglo 2 
e|---------------------------|----------------------------------------|
B|-------8--10--8--10--10b---|-----8--10--8--10--10b--10b--10b--10b---|
G|----9----------------------|---9------------------------------------|
D|---------------------------|----------------------------------------|
A|---------------------------|----------------------------------------|
E|---------------------------|----------------------------------------|



PUENTE:   Em - D   <-- Play each chord with long delay


SOLO:   Em - D - Em - D

e|------------------------|-------------------------------------|
B|--12----------15--15b---|--13--13--13--12--13--12h13p12-------|
G|--12--14--12------------|--------------------------------14---|
D|--14--------------------|-------------------------------------|
A|------------------------|-------------------------------------|
E|------------------------|-------------------------------------|

e|---------------------------|--------------|
B|----------------------8----|--7-----------|
G|----9br----9br--7--9-------|----7---------|
D|--9-------9----------------|------7-------|
A|---------------------------|--------9-----|
E|---------------------------|--------------|

e|-----------------------------|-----------------------|
B|------7--8--10--8--7h8p7-----|----7--8--7h8p7--------|
G|----7--------------------9---|--7-------------9s7----|
D|--7--------------------------|-----------------------|
A|-----------------------------|-----------------------|
E|-----------------------------|-----------------------|



C                               G
Vamos mi cariño que todo está bien
                 Bm                   D
Esta noche cambiaré te juro que cambiaré
C                             G
Vamos mi cariño ya no llores más
                         Bm                   D
Por vos yo bajaría el sol o me hundiría en el mar
           C              G
Y esto parece verdad para mi
             C-C-C                                
Y esto parece     verdad para mi…


**************************************************
Clean sound + compressor
Cover and Tutorial in Youtube [Somos Posers]
J o s s

            
            
Suggest correction
Creating personal tab
Creating personal tab
You can edit any tab online and save it as your Personal.

You can edit, replace or remove any tab part or add personal notes – all changes will be seen only by you.

Personal tabs can be accessed anytime from any device, even offline.
Learn more »
Give kudos to tab author, rate the tab!
1 2 3 4 5
comments
print report bad tab
guest
You may want to rate the tab now too:
select rating
Wanna post a correction for this tab? Suggest correction