Oops, an error
Loading. Please wait.

No Me Dejes chords

version 3
version 3

Whole song

18 views 1 this week
no commentswrite comment
1 2 3 4 5
3 more votes to show rating
add to favorites
×
Save as Personal and add changes to this tab that will be seen only by you. Learn more ›
×
You can save this tab as Personal to edit and correct it or add notes. All changes will be seen only by you. Learn more »
launch autoscroll
font size
0
reset
transpose
0
reset
display chords
guitar tuner
edit
Autoscroll
slow
fast
+/-
esc
set tempo
stop
Strumming
There is no strumming pattern for this song yet. and get +5 IQ
Pablo Rodríguez el negro quebole¡¡¡¡¡tamb banda potro la toca
y se escucha perrona, es una cancion muy buena

           D         Bm           G           A
e/----------------------------------------------------------------
b/--------------------------------2-5/7-5-5--3-3--2-2--3-2----------
g/----------------------------3-5-----------------------------5-3-5--
d/---7------------------7-------------------------------------------
a/------10-9-9-9-7-9----5------------------------------------------
E/-----------------------------------------------------------------
         G         A             D
e/-----3-2-----------------2-2-------------2-------------------
b/----------5-3-3---3--3-------3-5-----5---5-3-5------------------
g/------------------4--4------------------------------------------
d/---------------------------------------------------------
a/----------------------------------------------------------
E/------------------------------------------------------

NO ME DEJES

 D      G                  A
 Dime por que te pones nerviosa
   Fm       Bm
 Al hablarme
   G                     A
 Por que de pontro tu sonrisa desaparecio
 D
 Desaparecio

 D         G               A
Dime por que esconde tu equipaje
   Fm      Bm
Al mirarme
     G                  A          D
pues siento que nuestro amor se termino

    G            A             Fm     Bm
No es justo que esto termine en una despedida
    G                  A          G  A
No quiero que tus labios me digan adios
    D                  Bm
No me digas que me vas a dejar
    G                         A
Por sigue aun mi alma enamorada de ti
    D                  Bm
No me digas que me vas a dejar
    G                        A
pues mi corazon es tuyo y no quiere quedarce aquí
    G                  A            D
A sufrir a llorar en esta soledad no me dejes

(INTRO)

            
            
Suggest correction
Creating personal tab
Creating personal tab
You can edit any tab online and save it as your Personal.

You can edit, replace or remove any tab part or add personal notes – all changes will be seen only by you.

Personal tabs can be accessed anytime from any device, even offline.
Learn more »
Give kudos to tab author, rate the tab!
1 2 3 4 5
comments
print report bad tab
guest
Wanna post a correction for this tab? Suggest correction