Oops, an error
Loading. Please wait.

La Reina Del Muelle chords

version 2
version 2

Whole song

14 views 1 this week
no commentswrite comment
1 2 3 4 5
3 more votes to show rating
add to favorites
×
Save as Personal and add changes to this tab that will be seen only by you. Learn more ›
×
You can save this tab as Personal to edit and correct it or add notes. All changes will be seen only by you. Learn more »
launch autoscroll
font size
0
reset
transpose
0
reset
display chords
guitar tuner
edit
Autoscroll
slow
fast
+/-
esc
set tempo
stop
Strumming
There is no strumming pattern for this song yet. and get +5 IQ
+ Servidor FTP de la Universidad de Leon        +
+   +
+++++++++++++++++++++++++++++++++++++++++++++++++

A                      A - G - A
  Cuando se acerca la noche
                  A - G - A
  en un oscuro Caf,
                     D  -  C  -  D
  la gente paga dos libras
                      A - G - A
  por escucharla y beber.
                         E-E-E-D#-D
  Su voz se mete en tus venas,
                          A - G - A
  tu cuerpo vibra sin querer.

                       A  -  G  -  A
  El viento es un hurac n que
                          A - G - A
  sopla en los Mares del Sur.
                         D  -  C  -  D
  Ella es la reina del muelle,
                          A - G - A
  ella es la reina del blues.
                         E-E-E-D#-D
  Los chicos bailan a oscuras,

  el piano escupe su can..
  

      A       C         D          A
  ..ciooo-o-o-¢n, otra vez esa canci¢n (uo-o-o-o-o)
   A      C         D           A - G - A
  ooo-o-o-oo, otra vez esa canci¢n


  No necesito dinero,
  no necesito tu amor.
  La £nica cosa que quiero
  es un poco de carb¢n
  para pintarme la cara,
  para cambiarme de col..
  
  ..ooo-o-o-or, otra vez esa canci¢n (uo-o-o-o-o)
  ooo-o-o-oo, otra vez esa canci¢n

  *punteo*
                      
                      A G A                     A G A                   D C D
--------------------------------------------------------8-10-12-10-8-10-10-
-13-13-13-13-12-13-12-10---13-13-13-13-12-13-12-10---10--------------------
---------------------------------------------------------------------------
---------------------------------------------------------------------------
---------------------------------------------------------------------------
---------------------------------------------------------------------------
                  
                  A G A                      E     E     E  D# D
-------10-------8------12-15-12-15-12-15-12--12-12-12-12-12-11-10----------
-13-13----13-10---10-------------------------------------------------------
---------------------------------------------------------------------------
---------------------------------------------------------------------------
---------------------------------------------------------------------------
---------------------------------------------------------------------------
                   
                   A G A
-8-8-10-8------------------------------------------------------------------
----------11---------------------------------------------------------------
-------------12-10-12------------------------------------------------------
---------------------------------------------------------------------------
---------------------------------------------------------------------------
---------------------------------------------------------------------------


  No necesito dinero,
  no necesito tu amor.
  La £nica cosa que quiero
  es un poco de carb¢n
  para pintarme la cara,
  para cambiarme de col..
  
  ..ooo-o-o-or, otra vez esa canci¢n  [uo-o-o-o-o]
  ooo-o-o-oo, otra vez esa canci¢n   [uo-o-o-o-o]
  ooo-o-o-oo, otra vez esa canci¢n   (canci¢n, canci¢n, can..)
  ..cio-o-o-¢n, otra vez esa canci¢n

  A - A - A - A - A

            
            
Suggest correction
Creating personal tab
Creating personal tab
You can edit any tab online and save it as your Personal.

You can edit, replace or remove any tab part or add personal notes – all changes will be seen only by you.

Personal tabs can be accessed anytime from any device, even offline.
Learn more »
Give kudos to tab author, rate the tab!
1 2 3 4 5
comments
print report bad tab
guest
Wanna post a correction for this tab? Suggest correction