Oops, an error
Loading. Please wait.

Tierra Mestiza tab

version 1
version 1

Whole song

659 views 9 this week
no commentswrite comment
1 2 3 4 5
3 more votes to show rating
add to favorites
×
Save as Personal and add changes to this tab that will be seen only by you. Learn more ›
×
You can save this tab as Personal to edit and correct it or add notes. All changes will be seen only by you. Learn more »
launch autoscroll
font size
0
reset
how to read this tab
guitar tuner
edit
Autoscroll
slow
fast
+/-
esc
set tempo
stop
 q hay carnales como se los prometi aqui esta el requinto de
tierra mestiza y esta colaboracion se la dedico al amor de mi vida
aunque esta fuera de lugar ella es mi motivacion

TE AMO MARISOL   mi solecito niña hermosa


es el mismo que toca la flauta de carrizo
INTRO

E------------------------------------------
A------------------------------------------
D------------------------------------------
G------------------------------------------
B-0-13-13---10-13-10-13---10-10---13-12-8--
e-0-12-12---12-12-10-12----8--8---12-10-7--

E------------------------------------------
A------------------------------------------
D------------------------------------------
G------------------------------------------
B-0-13-13---10-13-10-13---10-10---13-12----
e-0-12-12---12-12-10-12----8--8---12-10----


E------------------------------------------
A------------------------------------------
D------------------------------------------
G----------------------------------7-------
B-0-10-10--8--10--8--10--0-0--10-8-8-------
e-0--8--8--7--8---7--8---0-0--8--7---------


E------------------------------------------
A------------------------------------------
D------------------------------------------
G------------------------------------------
B-0-10-10--8--10--8--10-----10-10--10--13--
e-0--8--8--7--8---7--8------8--8---12--12--


ESTE REQUINTO ES EL INTERMEDIO

E------------------------------------------
A------------------------------------------
D------------------------------------------
G------------2-----------------------------
B------3--------3-----------3-1------------
e-1--0------------0-1-----0----------------

E------------------------------------------
A------------------------------------------
D------------------------------------------
G--2------------------3--------------------
B----1-3---------3--1----------------------
e--------0---------------------------------

E--------------
A--------------
D--3-----------             solo un rasgueo A,A#,C
G----3---------
B-------1--3---
e--------------

SE REPITE SOLO CAMBIAN LAS PISADAS DEL ACOMPAÑAMIENTO


eso es todo carnales no es dificil
apoyen la musica mexicana si te
sientes orgulloso de tu tierra te invito a q saques esta cancion
te va a gustar
alex_24j_89a@
////////**kFetO**/////***&OL***/////+E @Mº/////

            
            
Suggest correction
Creating personal tab
Creating personal tab
You can edit any tab online and save it as your Personal.

You can edit, replace or remove any tab part or add personal notes – all changes will be seen only by you.

Personal tabs can be accessed anytime from any device, even offline.
Learn more »
Give kudos to tab author, rate the tab!
1 2 3 4 5
comments
print report bad tab
guest
Wanna post a correction for this tab? Suggest correction