Oops, an error
Loading. Please wait.

El Viajero chords

46 views 1 this week
no commentswrite comment
1 2 3 4 5
3 more votes to show rating
add to favorites
×
Save as Personal and add changes to this tab that will be seen only by you. Learn more ›
×
You can save this tab as Personal to edit and correct it or add notes. All changes will be seen only by you. Learn more »
launch autoscroll
font size
0
reset
transpose
0
reset
simplify chords
display chords
guitar tuner
edit
Autoscroll
slow
fast
+/-
esc
set tempo
stop
Strumming
There is no strumming pattern for this song yet. and get +5 IQ
Armonizada en RE
INTRO
                   D           D*        D         D*
E|------------------5-5--------7-7-------5-5-------7-7-----|
B|----------------------7----------7---------7---------7---|
G|------------------------7----------7---------7---------7-|
D|---------------------------------------------------------|
A|-0-0--2-2--4-4-------------------------------------------|
E|---------------------------------------------------------|


D
Voy viajando por el mundo
D*                     D        D*
siempre sin pensar en donde parar
          D               G
pues en cada lugar tengo un amor
         D     A7    D
la mas linda del lugar.


D                    D*
Una bella señorita espera por mi
D             D*
Todavía por Milán
         D                  G
si estuvieras en alaska podrias ser
      D       A7   D
mi preciosa esquimal.


       G                 D
mi dulce fragancia en Berlín estás
    A7          D
suspirando por mi
        G                        D
y en hawai brilló el sol con esplendor
    A7
cuando yo la bese.


D                       D*
es mi linda madmuacell más allá del mar
D            D*
recuerdo la vez
         D                   G
cuando juntos bailamos en Paris
     D     A7     D
al ritmo del can can

(Solo Guitarra)
intermedio guitarra

   D                   D*                D            D*
E|-----5h7-5-----------------------5h7-5--------------------|
B|---7-------7-------5h7-5-------7-------7-------5h7-5------|
G|-7-------------4-7-------7---7-------------4-7-------7----|
D|----------------------------------------------------------|
          D                                    A7

E|-----5--7-5-----5-7-5---7-5--5-7-5-5---5-----------------
B|---7--------7---------7------------------8-7-5-----------
G|-7-------------------------------------------------------
D|---------------------------------------------------------

           D                 G
E|-5-7-5--10-12-14---5-7-5--10-7---|
B|-------------------------------7-|
G|---------------------------------|
D|---------------------------------|
        D       A7      D
E|--------5-----------------|
B|--5-6-7---7-6-5-----------|
G|7---------------7-4---7---|
D|--------------------7-----|

D
Mi dulce .....


    D*              RITMO DE A CANCION: Balada ritmica

E|--7------|  Este acorde es una variante de Re,
B|--7------|  pero sigue siendo Re, se puede tocar o no
G|--7------|  pero se escucha mejor en esa parte con esta
D|--7------|  posición
A|---------|


El solo de guitarra esta muy facil es recomendable que escuchen la canción
para ver donde van los cambios.
si tienen dudas con el solo de la guitarra escribanme.

            
            
Suggest correction
Creating personal tab
Creating personal tab
You can edit any tab online and save it as your Personal.

You can edit, replace or remove any tab part or add personal notes – all changes will be seen only by you.

Personal tabs can be accessed anytime from any device, even offline.
Learn more »
Give kudos to tab author, rate the tab!
1 2 3 4 5
comments
print report bad tab
guest
Wanna post a correction for this tab? Suggest correction