Oops, an error
Loading. Please wait.

Oh Solitario chords

45 views 1 this week
no commentswrite comment
1 2 3 4 5
2 more votes to show rating
add to favorites
×
Save as Personal and add changes to this tab that will be seen only by you. Learn more ›
×
You can save this tab as Personal to edit and correct it or add notes. All changes will be seen only by you. Learn more »
launch autoscroll
font size
0
reset
transpose
0
reset
simplify chords
display chords
guitar tuner
edit
Autoscroll
slow
fast
+/-
esc
set tempo
stop
Strumming
There is no strumming pattern for this song yet. and get +5 IQ
Armonizada en MI, ritmo balada ritmica.
                                            E
G|-------------------------------------------|
D|-------------------------------------------|
A|-------2-4-2----------2-4-2---------2-4-2--|
E|-0-0-4--------0-0-0-4-------0-0-0-4--------|

E                           B7
Todos, todos se divieten menos yo
                          E
soy un tonto que solito me quedé
                E7       A
yo no puedo olvidar que me dejó
 B7                E
oooooooooh    me dejó

E                                   B7
fue un grave error que yo sufrí y me hace mal
                           E
el no salir de mi sufrir, mi soledad
                       E7     A
y mientras sigo suspirando por su amor
B7               E
oooooooooh  me dejó

B7
Ella no es como yo, ella vive feliz
                          E
se pasa coqueteando por allí
     B7
mi amor se lo llevó y a mi me abandonó
                            E
espero que regrese junto a mí.

E                              B7
Debe existir una manera de olvidar
                                E
tanta tristeza y soledad de corazón
                       E7             A
y que se pierda el sentimiento y el dolor
B7              E
ooooooooh  me dejó


E|-7-7-7-5-7-7-7----7-7-7-5-7-7-7----7-7-7-5-7-7-7-----|
B|-----------------------------------------------------|
G|-----------------------------------------------------|
D|-----------------------------------------------------|

E|7-7-7-5-7-7-7----7-7-7-5-7-7-7----7-7-7-5-7-7--7s9---|
B|-----------------------------------------------------|
G|-----------------------------------------------------|
D|-----------------------------------------------------|

E|7-7-7-5-7-7-7---7-7-7-5-7-7--7s12--12-9-12-9-12-9---5-5-5-7-5--|
B|---------------------------------------------------------------|
G|---------------------------------------------------------------|
D|---------------------------------------------------------------|

 B7             E
ooooooooh me dejó

Se repite desde:
Ella no es como yo....
existen varias versiones de esta cancion, esta es de las primeras que
salieron, si tienen dudas con la canción haganmelas saber,
o si encontraron algun error tambien mandenmelo al correo.

            
            
Suggest correction
Creating personal tab
Creating personal tab
You can edit any tab online and save it as your Personal.

You can edit, replace or remove any tab part or add personal notes – all changes will be seen only by you.

Personal tabs can be accessed anytime from any device, even offline.
Learn more »
Give kudos to tab author, rate the tab!
1 2 3 4 5
comments
print report bad tab
guest
Wanna post a correction for this tab? Suggest correction