Oops, an error
Loading. Please wait.

Pecos Bill tab

84 views 1 this week
no commentswrite comment
1 2 3 4 5
3 more votes to show rating
add to favorites
×
Save as Personal and add changes to this tab that will be seen only by you. Learn more ›
×
You can save this tab as Personal to edit and correct it or add notes. All changes will be seen only by you. Learn more »
launch autoscroll
font size
0
reset
how to read this tab
guitar tuner
edit
Autoscroll
slow
fast
+/-
esc
set tempo
stop
Armonizada en G
Introducción

E|----------------------|------------------------------
B|----------------------|------------------------------
G|------------2-4-4-----|------------------------------
D|---0-2-0--0-----------|-----0-2-0----0-2-0-----------
A|----------------------|------------------------------
E|-3--------------------|---3--------3-----------------

E|----------------------|------------------------------|
B|----------------------|------------------------------|
G|------------2-4-4-----|------------------------------|
D|---0-2-0--0-----------|-----0-2-0----0-2-0-----------|
A|----------------------|------------------------------|
E|-3--------------------|---3--------3-----------------|

E|----------------------|------------------------------
B|----------------------|------------------------------
G|---0-2-0-5-0-2-0------|------------------------------
D|----------------------|-----0-2-0-----0-2-0----------
A|-3--------------------|------------------------------
E|----------------------|---3---------3----------------

                                G
E|----------------------------------------------------|
B|----------------------------------------------------|
G|---2-4-2-----0-2-0----------------------------------|
D|-0---------------------0-2-0------------------------|
A|-----------3----------------------------------------|
E|---------------------3--------3---------------------|

(Esta parte va hablada y acompañada con el intro)
fijense muy bien donde van los cambios.


Esta es la historia de un chico agogo

el cual se fue pal norte, a visitar a sus primos, mira nomás

alla se volvio un rebelde y la historia dice así:

       G                 D7            G
Pecos Bill fue un superhombre en todo Texas
                           D7           G
y por más que se hable de él no es presumir
          C                          G
era el vaquero más terrible, más valiente, más temible
                     D7         G
invencible era el famoso Pecos Bill


(Coro)
G         C                G
Ay ay ay ay ay ay lo digo yo
                         D7           G
fue el vaquero más autentico que existío


G                  D7          G
Una vez hubo un ciclón y lo detuvo
                    D7      G
y después para lo malo lo montó
            C                      G
y fue tan facíl la faena que el ciclón con mucha pena
                     D7         G
convertido en suave brisa se alejó.

(Coro)

G                     D7           G
Otra vez que hubo sequía en todo Texas, puro tequila
                       D7        G
y la lluvia en mucho tiempo no calló,
          C                          G
estando Pecos sin trabajo fue por lluvia y tanta trajó
                     D7         G
que hasta México su golfo le formó.

(Coro)

G                  D7         G
reclinado en una nube sobre Texas, pelaó
                    D7       G
a balazos las estrellas derribó
        C                            G
y nos dejó siempre brillando sobre Texas vigilando,
                D7            G
un lucero refulgente como el sol.

(Coro)

    Gm
E|---3---3----3-3--------------3---------------------------
B|---3---3----3-3--------------3---------------------------
G|---3---3----3-3--3-2-2-0-0---3---------------------------
D|---5---5----5-5------------4-5---------------------------
A|---5---5----5-5--------------5---------------------------
E|---3---3----3-5--------------3---------------------------

(En esta parte se toca el acorde solo una vez)

Gm            D7                              Gm
  Pecos Bill     perdió la huella en el desierto
Gm            D7                    Gm
 se moría de sed y lo abrazaba el sol
B#m
  y cuando estaba medio muerto
Gm
  hizó un zurco en el desierto
        G          D7         G
y ese día el río Bravo construyó

(coro)  2 veces
                         D7           G
fue el vaquero más autentico que existío

               F# G
E|-------------2--3------------------------|
B|-------------2--3------------------------|
G|--0----------3--4------------------------|
D|----0-0-2-0--4--5------------------------|
A|-------------4--5------------------------|
E|-------------2--3------------------------|


Se pueden utilizar los acordes tradicionales pero yo recomiendo estos,
ya que se escuchan mejor, les recomiendo que primero escuchen la canción
    D7    G
E|--x-----3---------------|
B|--3-----3---------------|
G|--5-----4---------------|
D|--4-----5---------------|
A|--5-----5---------------|
E|--x-----3---------------|


esta canción la interpretaron varios grupos y artistas, pero la versión
de los Hooligans es la mejor, envien sus comentarios a mi correo
martin_sc83@
si tienen dudas escribanme, disfruten la canción

Saludos a toda la raza de Monterrey.

            
            
Suggest correction
Creating personal tab
Creating personal tab
You can edit any tab online and save it as your Personal.

You can edit, replace or remove any tab part or add personal notes – all changes will be seen only by you.

Personal tabs can be accessed anytime from any device, even offline.
Learn more »
Give kudos to tab author, rate the tab!
1 2 3 4 5
comments
print report bad tab
guest
Wanna post a correction for this tab? Suggest correction