Oops, an error
Loading. Please wait.

Amorcito tab

48 views 1 this week
no commentswrite comment
1 2 3 4 5
3 more votes to show rating
add to favorites
×
Save as Personal and add changes to this tab that will be seen only by you. Learn more ›
×
You can save this tab as Personal to edit and correct it or add notes. All changes will be seen only by you. Learn more »
launch autoscroll
font size
0
reset
how to read this tab
guitar tuner
edit
Autoscroll
slow
fast
+/-
esc
set tempo
stop
INTRO:

         D        F#7       Bm

||------5-7-10-------10------------------||
||o---7-----12-12-10-12-12-10-7-7-5-3---o||
||--7----------11-11----11-11-7-7-6-4----||
||---------------------------------------||
||o-------------------------------------o||
||---------------------------------------||


            G          F#m       E

|-------7-9-10-7-10-10-12-10-7-7-5-3----|
|-----7-----12-8-12-12-12-12-8-8-7-5----|
|---7-----------------------------------|
|-9-------------------------------------|
|---------------------------------------|
|---------------------------------------|


             D        F#7            Bm

|-----5-7-10--------5/14-17-17-14-12-10--------7-10-|
|---7-----12-12--10-7/15-15-15-15-14-12------7------|
|-7----------11--11----------------------6-7--------|
|---------------------------------------------------|
|---------------------------------------------------|
|---------------------------------------------------|


         Amorcito          tengo una pena

              Bm          G           F#7

|-------------^2-5-5-4-4--3-----------^2--|
|-------------^3----------3-----------^2--|
|-------------^4----------4-----------^3--|
|-4-5-4-2-----^4----------5-----------^2--|
|---------5-2-------------5-----------^4--|
|----------------------------------------|


                  que me acongoja  de tal  manera que  me lacera

                              D              F#7            Bm

|-2-3-2-9-14-14---------|----------x--2------------x--2--------x--2-|
|-2-3-2-9-14-14---------|----------x--3------------x--2--------x--3-|
|------------------------|----------x--2------------x--3--------x--4-|
|------------------------|----0-----x--0------------x--2--------x--4-|
|------------------------|--------------------------x--4-----2-------|
|------------------------|--------------------2----------------------|


           Amorcito            te quiero  tanto

              Bm             G            F#7

|---------------^2--5-5-4-4--3------------^2------|
|---3---2---2---^3-----------3------------^2------|
|---------------^4-----------4------------^3------|
|-4---3---2-----^4-----------5------------^2------|
|-------------2--------------5------------^4------|
|-------------------------------------------------|


|-2-3-2-9-14-14-------|
|-2-3-2-9-14-14--------|
|----------------------|
|----------------------|
|----------------------|
|----------------------|


que de no verte siento la muerte en el corazón

                           D               F#7              Bm

------|---------x--2-------------x--2------2---5-5-2-5-5-2-5-5-2-|
------|---------x--3-------------x--2------3---------------------|
------|---------x--2-------------x--3------4---------------------|
------|---0-----x--0-------------x--2------4---------------------|
------|--------------------------x--4------2---------------------|
------|--------------------2-------------------------------------|


que de no verte ...

           D       F#7       Bm

--|------------x-2-----x-2---2---------7-|
--|------------x-3-----x-2---3-------7---|
--|------------x-2-----x-3---4-----7-----|
--|--------0---x-0-----x-2---4-8-9-------|
--|--------------------x-4---2-----------|
--|-----------------2--------------------|


|-------|
|-------|
|-------|
|-4-2---|
|-----5-|
|-------|


  Pienso durante el día     en   ti

  F#7                            Bm

|------2---2--2---------2---2--2-----
|------2---2--2---------2---2--2-----
|------------------------------------
|------------------------------------
|-4------------------4------------9--
|------------------------------------


        de noche no se dormir            creo que moriría

            A7          D                 D7            G
--7---7--7-----5---5--5-------------10-9-7-----------------|
--7---7--7-----5---5--5-----------7--------10-8-7----------|
--------------------------------7-----------------7--------|
------------------------------7---------------------10-9---|
------------7---------------5------------------------------|
-----------------------------------------------------------|


 chiquilla     mia   sin   tu  querer

               B7                 Em

|------------------------------------|
|-8-------------------7-10-7-10-7-8--|
|---11-10-10-9-8----8----------------|
|-----------------9------------------|
|------------------------------------|
|------------------------------------|


  y sólo con la idea   de que me has olvidado    besando ...

   G                     A                 D      A7    D

|-----3--3-----------------5--5-----------^5-5-5----5-5-----5-5--|
|-----3--3-----------------5--5-----------^7-7-7----5-5-----7-7--|
|-----4--4-----------4-5-6-6--6-----------^7-7-7----6-6-----7-7--|
|-----5--5-----------5-6-7-7--7-----------^7-7-7----5-5-----7-7--|
|-----5--5-----------------7--7-----------^5--------7-7---5------|
|--3---------------3------------------------------5--------------|


                 besando tu retrato ...                         Amorcito...

  F#7    Bm      A7             D     F#7    Bm

|---2-2----7-7-|-----5--5---------5-5---2-2--^7---------7----------------|
|---2-2----7-7-|-----5--5---------7-7---2-2--^7-------7------------------|
|---3-3----7-7-|-----6--6---------7-7---3-3--^7-----7--------------------|
|---2-2----9-9-|-----5--5---------7-7---2-2--^9-8-9-------4-5-4-2-0------|
|---4-4----9-9-|-----7--7-------5-------4-4--^9---------------------2----|
|-2------7-----|-5--------------------2------^7--------------------------|


Los Kipus
Paco Maceda - Genaro Ganoza
Voz:Carmen Montoro

            
            
Suggest correction
Creating personal tab
Creating personal tab
You can edit any tab online and save it as your Personal.

You can edit, replace or remove any tab part or add personal notes – all changes will be seen only by you.

Personal tabs can be accessed anytime from any device, even offline.
Learn more »
Give kudos to tab author, rate the tab!
1 2 3 4 5
comments
print report bad tab
guest
Wanna post a correction for this tab? Suggest correction