Oops, an error
Loading. Please wait.

Nada Soy tab

155 views 1 this week
no commentswrite comment
1 2 3 4 5
3 more votes to show rating
add to favorites
×
Save as Personal and add changes to this tab that will be seen only by you. Learn more ›
×
You can save this tab as Personal to edit and correct it or add notes. All changes will be seen only by you. Learn more »
launch autoscroll
font size
0
reset
how to read this tab
guitar tuner
edit
Autoscroll
slow
fast
+/-
esc
set tempo
stop
Cualquier duda o consulta Escríbeme! a xFlaviox29xD@
Para mas información Visitame! en 
¡¡¡Gracias!!!

Capotraste (1er Traste)

(SOLO)

|--10-12-13-----5-6-7--------------7-7--10-10-10--8---|
|--10-------11--5-----6-------9-9--9-9--12-12-12--10--|
|--10-----------5--------9-9--9-9---------------------|
|--12-----------7--------9-9--------------------------|
|--12-----------7-------------------------------------|
|--10-----------5-------------------------------------|

|--10-12-13-----5-6-7--------------7-7--10-10-10--8-------------8--|
|--10-------11--5-----6-------9-9--9-9--12-12-12--10---------10----|
|--10-----------5--------9-9--9-9--------------------------9-------|
|--12-----------7--------9-9--------------------------9-10---------|
|--12-----------7--------------------------------------------------|
|--10-----------5--------------------------------------------------|

     Am            E7        Am A7
Nada soy, sin tu cariño nada soy
     Dm             A7        Dm D7
Nada soy, si no te tengo nada soy
       C          G7           C
Me enseñaste a quererte con delirio
        G7           C            E7               Am
Hoy mi vida es un martirio si no estás más junto a mí.

     Am                E7      Am A7
Te busqué, por todas partes te busqué
         Dm        A7         Dm D7
Y al no poder encontrarte, te lloré
      C                 G7            C
Que dolor siento en mi pecho, ay que dolor
       G7           C                E7       Am
Te olvidaste de tu amor que hoy no vivirá sin ti.

                Dm
Te fuiste sin motivo de mi lado
 G7         C
Lloró mi corazón sacrificado,
C                   E7          E7
El ser que a ti te quiso con pasión
                Am A7
Y que te dio su amor
              Dm
No tiene la dulzura de tus besos
 G7           C
Tampoco la ternura de tu amor
  C         E7          E7         Am
Ahora nada soy sin tu cariño, nada soy.

(X2)

[X2]

Cualquier duda o consulta Escríbeme! a xFlaviox29xD@
Para mas información Visitame! en 
¡¡¡Gracias!!!

            
            
Suggest correction
Creating personal tab
Creating personal tab
You can edit any tab online and save it as your Personal.

You can edit, replace or remove any tab part or add personal notes – all changes will be seen only by you.

Personal tabs can be accessed anytime from any device, even offline.
Learn more »
Give kudos to tab author, rate the tab!
1 2 3 4 5
comments
print report bad tab
guest
Wanna post a correction for this tab? Suggest correction