Oops, an error
Loading. Please wait.
We have Chord Pro version of La Bamba.
It's the closest thing you can get to the original song and it has interactive parts. Check out the tab »
×
1,748 views 33 this week
no commentswrite comment
1 2 3 4 5
x 3
add to favorites
×
Save as Personal and add changes to this tab that will be seen only by you. Learn more ›
×
You can save this tab as Personal to edit and correct it or add notes. All changes will be seen only by you. Learn more »
launch autoscroll
font size
0
reset
guitar tuner
backing track
0:00
0:00
edit
Autoscroll
slow
fast
+/-
esc
set tempo
stop
Author
-------------------------------------------------------------------------------
                             LA BAMBA - Los Lobos
-------------------------------------------------------------------------------

Tuning: Standard

 Verse 1 (0:05)
G|-----------------------------------------------------------------------|
D|-----------------------x--3--5--5-----x--5------x--x--5----------------|
A|-----------------3--3--------------------------------------------------|
E|--3\-------------------------------------------------------------------|
    Para bailar la bamba             Para bailar la bamba 

G|-------------------------------------------|
D|----------x--3--5--5-----x---5----x--x--5--|
A|---3--3------------------------------------|
E|-------------------------------------------|
       se  necesita       Una poca de gracia

G|-------------------------------------------|
D|----------x--3--5--5-----x---5----x--x--5--|
A|---3--3------------------------------------|
E|-------------------------------------------|
                     Una       poca   de gracia

G|-------------------------------------------|
D|----------x--3--5--5-----x---5----x--x--5--|
A|---3--3------------------------------------|
E|-------------------------------------------|
        pa'mi, pa'ti Aye   Arriba y arriba

G|-------------------------------------------|
D|----------x--3--5--5-----x---5----x--x--5--|
A|---3--3------------------------------------|
E|-------------------------------------------|
                     Aye   Arriba y arriba

G|-------------------------------------------|
D|----------x--3--5--5-----x---5----x--x--5--|
A|---3--3------------------------------------|
E|-------------------------------------------|
       Por ti seré        Por ti seré

G|-------------------------------------------|
D|----------3--5\----------------------------|
A|---3--3------------------------------------|
E|-------------------------------------------|
    Por ti seré              Yo no soy 

Verse 2 (0:27)
G|-------------------------------------------|
D|----------x--3--5--5-----x---5----x--x--5--|
A|---3--3------------------------------------|
E|-------------------------------------------|
 marinero             Yo no soy marinero

G|-------------------------------------------|
D|----------x--3--5--5-----x---5----x--x--5--|
A|---3--3------------------------------------|
E|-------------------------------------------|
       Soy capitán        Soy capitán

G|-------------------------------------------|
D|----------x--3--5--5-----x---5----x--x--5--|
A|---3--3------------------------------------|
E|-------------------------------------------|
    Soy capitán 

Chorus (0:36)
G|-------------------------------------------------------------------|
D|---------3----5--------0-3-3-2-0-----------3----5--------0-3-3-2-0-|
A|---3--3--------------2---------------3--3--------------2-----------|
E|-------------------3---------------------------------3-------------|
    Bamba, bamba                      Bamba, bamba

G|-----------------------------------------------------------------|
D|---------3----5--------0-3-3-2-0-------------3--3--3---5\--------|
A|---3--3--------------2---------------3---3-3---------------------|
E|-------------------3---------------------------------------------|
    Bamba, bamba

Verse 3 (0:48)
G|-----------------------------------------------------------------------|
D|-----------------------x--3--5--5-----x--5------x--x--5----------------|
A|-----------------3--3--------------------------------------------------|
E|-----------------------------------------------------------------------|
    Para bailar la bamba             Para bailar la bamba 

G|-------------------------------------------|
D|----------x--3--5--5-----x---5----x--x--5--|
A|---3--3------------------------------------|
E|-------------------------------------------|
       se  necesita       Una poca de gracia

G|-------------------------------------------|
D|----------x--3--5--5-----x---5----x--x--5--|
A|---3--3------------------------------------|
E|-------------------------------------------|
                     Una       poca   de gracia

G|-------------------------------------------|
D|----------x--3--5--5-----x---5----x--x--5--|
A|---3--3------------------------------------|
E|-------------------------------------------|
        pa'mi, pa'ti Aye   Arriba y arriba

Guitar Solo (1:01)
G|-------0---2-0----0-------------------0---2-0----0----------|
D|-----2---3--------------------------2---3-------------------|
A|--3-----------------3-3-2-0------3-----------------3-3-2-0--|
E|------------------------------------------------------------|

G|-------0---2-0----0-------------------0---2-0----0----------|
D|-----2---3--------------------------2---3-------------------|
A|--3-----------------3---2--------3--------------------------|
E|------------------------------------------------------------|

G|-------0---2-0----0-------------------0---2-0---------------|
D|-----2---3--------------------------2---3-------------------|
A|--3-----------------3-3-2-0------3--------------------------|
E|------------------------------------------------------------|

G|-------0---2-0----0-------------------0---2-0----0----------|
D|-----2---3--------------------------2---3-------------------|
A|--3-----------------3-3-2-0------3-----------------3-3-2-0--|
E|------------------------------------------------------------|

G|-------0---2-0------------------------0---2-0----0----------|
D|-----2---3--------------------------2---3-------------------|
A|--3------------------------------3-----------------3\-------|
E|------------------------------------------------------------|

G|--------2-0----------------------------2-2-0-------|
D|-2-0-3-----------0-3-3-2-0-------2-0-3--------5\---|
A|---------------2---------------3-------------------|
E|-------------3-------------------------------------|
                                                     
Verse 4 (1:36)
G|-----------------------------------------------------------------------|
D|-----------------------x--3--5--5-----x--5------x--x--5----------------|
A|-----------------3--3--------------------------------------------------|
E|-----------------------------------------------------------------------|
    Para bailar la bamba             Para bailar la bamba 

G|-------------------------------------------|
D|----------x--3--5--5-----x---5----x--x--5--|
A|---3--3------------------------------------|
E|-------------------------------------------|
       se  necesita       Una poca de gracia

G|-------------------------------------------|
D|----------x--3--5--5-----x---5----x--x--5--|
A|---3--3------------------------------------|
E|-------------------------------------------|
                     Una       poca   de gracia

G|-------------------------------------------|
D|----------x--3--5--5-----x---5----x--x--5--|
A|---3--3------------------------------------|
E|-------------------------------------------|
        pa'mi, pa'ti Aye   Arriba y arriba

G|-------------------------------------------|
D|----------x--3--5--5-----x---5----x--x--5--|
A|---3--3------------------------------------|
E|-------------------------------------------|
                     Aye   Arriba y arriba

G|-------------------------------------------|
D|----------x--3--5--5-----x---5----x--x--5--|
A|---3--3------------------------------------|
E|-------------------------------------------|
       Por ti seré        Por ti seré

G|-------------------------------------------|
D|----------x--3--5--5-----x---5----x--x--5--|
A|---3--3------------------------------------|
E|-------------------------------------------|
    Por ti seré 

Chorus (1:59)
G|------------------------------------------------------------------|
D|---------3----5--------0-3-3-2-0----------3----5--------0-3-3-2-0-|
A|---3--3--------------2--------------3--3--------------2-----------|
E|-------------------3--------------------------------3-------------|
    Bamba, bamba                      Bamba, bamba

G|---------------------------------------------------------------------|
D|---------3----5--------0-3-3-2-0----------3----5--------0-3-3-2-0----|
A|---3--3--------------2--------------3--3--------------2--------------|
E|-------------------3--------------------------------3-------------3\-|
    Bamba, bamba                      Bamba, bamba

Outro (2:15)
G|-------------------|        G|-------------------|
D|-------------------|        D|-------------------|
A|---------3--3------| x14    A|-------------------|
E|--3---3--------1---|        E|--3----------------|


| /  slide up
| \  slide down
| h  hammer-on
| p  pull-off
| ~  vibrato
| +  harmonic
| x  Mute note


===============================================================================

            
            
Suggest correction
Creating personal tab
Creating personal tab
You can edit any tab online and save it as your Personal.

You can edit, replace or remove any tab part or add personal notes – all changes will be seen only by you.

Personal tabs can be accessed anytime from any device, even offline.
Learn more »
Give kudos to tab author, rate the tab!
1 2 3 4 5
comments
print report bad tab
guest
You may want to rate the tab now too:
select rating
Wanna post a correction for this tab? Suggest correction