Oops, an error
Loading. Please wait.
We have an official La Bamba tab made by UG professional guitarists. Check out the tab »
×

La Bamba intro tab

version 3
version 3

Whole song

180,004 views 3 this week
15 commentsread comments
1 2 3 4 5
x 37
add to favorites
×
Save as Personal and add changes to this tab that will be seen only by you. Learn more ›
×
You can save this tab as Personal to edit and correct it or add notes. All changes will be seen only by you. Learn more »
launch autoscroll
font size
0
reset
how to read this tab
guitar tuner
backing track
0:00
0:00
edit
Autoscroll
slow
fast
+/-
esc
set tempo
stop
Author
Unregistered
This is the real la bamba intro:

[Intro]
e|-------------------------------------------------|
B|-------------------------------------------------|
G|-------------0---2-0--------------------0---2-0--|
D|-----------2---3-----------0-3-3-2-0---2--3------|
A|----0-2-3---------------2------------3-----------|
E|-3--------------------3--------------------------|

e|-1-1-1-1-1-0---1-1-1-1-1-0-----------------1-0---0--------|
B|-------------1-------------1-1-1-1-1-3-0-3-----3---1------|
G|----------------------------------------------------------|
D|----------------------------------------------------------|
A|----------------------------------------------------------|
E|----------------------------------------------------------|

e|---------------------------------------------|
B|1--0-----1---0---1---0-----1---0-------------|
G|-2---0-----2-------2---0-----2---------------|
D|---------------------------------------------|
A|---------------------------------------------|
E|---------------------------------------------|

  then
e|-1-1-1-1-1-0---1-1-1-1-1-0-----------------1-0---0--------|
B|-------------1-------------1-1-1-1-1-3-0-3-----3---1------|
G|----------------------------------------------------------|
D|----------------------------------------------------------|
A|----------------------------------------------------------|
E|----------------------------------------------------------|

            
            
Suggest correction
Creating personal tab
Creating personal tab
You can edit any tab online and save it as your Personal.

You can edit, replace or remove any tab part or add personal notes – all changes will be seen only by you.

Personal tabs can be accessed anytime from any device, even offline.
Learn more »
comments
print report bad tab
15 comments total. Showing first comments.
0 reply
SLASH4PRES 72 May 13, 2005 08:00 PM

you suck!

0 reply
Br()ke/\/ 10 Nov 03, 2005 03:10 PM

Is this a mexican song?

-1 reply
Guitarist94 10 Apr 26, 2006 05:34 AM

this is awsome

guest
Wanna post a correction for this tab? Suggest correction