Oops, an error
Loading. Please wait.

Crazy Dream bass

1,735 views 9 this week
no commentswrite comment
1 2 3 4 5
2 more votes to show rating
add to favorites
×
Save as Personal and add changes to this tab that will be seen only by you. Learn more ›
×
You can save this tab as Personal to edit and correct it or add notes. All changes will be seen only by you. Learn more »
launch autoscroll
font size
0
reset
guitar tuner
edit
Autoscroll
slow
fast
+/-
esc
set tempo
stop
Author
Difficulty
-----------------------------------------------------------------------------
		Crazy Dream (Los Lonely Boys) – Los Lonely Boys
-----------------------------------------------------------------------------

Tabbed By:  ChrisMill5
e-mail:  Christian.h.mills@gmail.com

Tuning:  Standard

Jojo Garza actually plays a six string beast, but you can emulate the whole song on a five.

Intro (0:06)
On the offbeat
G|--------------------------------------------------------------------------|
D|--------------------------------------------------------------------------|
A|--------------456---------------------------------------------------------|
E|---6--6--6--6-------------------------------------------------------------|
B|--------------------------------------------------------------------------|

G|--------------------------------------------------------------------------|
D|-----------8--------------------------(--8-8-8-8-8---8-8-8----)-----------|
A|--6--6--9-----------5--8-----------6--(--------------------4-5)-----------|
E|--------------6--6--------4--4--7-----(6-----------6----------)-----------|
B|-------------------------------------------(triplets above)---------------|

Verse 1 (0:16)
G|--------------------------------------------------------------------------|
D|-----------8--------------------------------------------------------------|
A|--6--6--9-----------5--8-----------6--------5--8--------------------------|
E|--------------6--6--------4--4--7-----6--6--------------------------------|
B|--------------------------------------------------------------------------|

G|--------------------------------------------------------------------------|
D|-----------8--------------------------------3--6--------------------------|
A|--6--6--9-----------5--8-----------6--4--4--------------------------------|
E|--------------6--6--------4--4--7-----------------------------------------|
B|--------------------------------------------------------------------------|

G|--888---------------------888---------------------------------------------|
D|-----------8--------3--6-----------8--8--6--------------------------------|
A|-----6-9------4--4-----------6-9------------9--8--------------------------|
E|--------------------------------------------------------------------------|
B|--------------------------------------------------------------------------|

Verse 2 (0:41)
G|--------------------------------------------------------------------------|
D|-----------8--------------------------------------------------------------|
A|--6--6--9-----------5--8-----------6--------5--8--------------------------|
E|--------------6--6--------4--4--7-----6--6--------------------------------|
B|--------------------------------------------------------------------------|

G|--------------------------------------------------------------------------|
D|-----------8--------------------------------3--6--------------------------|
A|--6--6--9-----------5--8-----------6--4--4--------------------------------|
E|--------------6--6--------4--4--7-----------------------------------------|
B|--------------------------------------------------------------------------|

G|--888---------------------------------------------------------------------|
D|-----------8--------3--6--------------------------------------------------|
A|-----6-9------4--4------(--------------------------4-5)-------------------|
E|------------------------(6-6-6-6-6-6-6-6-6-6-6-6-6----)-------------------|
B|-------------------------------(tripelets above)--------------------------|

Chorus (1:05)
G|--------------------------------------------------------------------------|
D|-----------8-----------------------5-----------------------5--------------|
A|--6--6--9-----------5--8--6--6--9-----------5--8--6--6--9-----------5-8---|
E|--------------6--6--------------------6--6--------------------6--6--------|
B|--------------------------------------------------------------------------|

G|--------------------------------------------------------------------------|
D|--------------------------------------------------------------------------|
A|-----------6--------------------------------------------------------------|
E|--4--4--7-----6-----------------------------------------------------------|
B|--------------------------------------------------------------------------|

Solo 1 (1:21)
G|--------------------------------------------------------------------------|
D|-----------8--------------------------(--8-8-8-8-8---8-8-8----)-----------|
A|--6--6--9-----------5--8-----------6--(--------------------4-5)-----------|
E|--------------6--6--------4--4--7-----(6-----------6----------)-----------|
B|-------------------------------------------(triplets above)---------------|

Verse 3 (1:30
G|--------------------------------------------------------------------------|
D|-----------8--------------------------------------------------------------|
A|--6--6--9-----------5--8-----------6--------5--8--------------------------|
E|--------------6--6--------4--4--7-----6--6--------------------------------|
B|--------------------------------------------------------------------------|

G|--------------------------------------------------------------------------|
D|-----------8--------------------------------3--6--------------------------|
A|--6--6--9-----------5--8-----------6--4--4--------------------------------|
E|--------------6--6--------4--4--7-----------------------------------------|
B|--------------------------------------------------------------------------|

G|--888---------------------------------------------------------------------|
D|-----------8--------3--6--------------------------------------------------|
A|-----6-9------4--4------(--------------------------4-5)-------------------|
E|------------------------(6-6-6-6-6-6-6-6-6-6-6-6-6----)-------------------|
B|----------------------------(triplets above)------------------------------|

Chorus (1:54)
G|--------------------------------------------------------------------------|
D|-----------8-----------------------5-----------------------5--------------|
A|--6--6--9-----------5--8--6--6--9-----------5--8--6--6--9-----------5-8---|
E|--------------6--6--------------------6--6--------------------6--6--------|
B|--------------------------------------------------------------------------|

G|--------------(--7-7-7-7-7---7-7-7----)-----------------------------------|
D|--------------(--8-8-8-8-8---8-8-8----)-----------------------------------|
A|-----------6--(--------------------4-5)-----------------------------------|
E|--4--4--7-----(6-6-6-6-6-6-6-6-6-6----)-----------------------------------|
B|------------------(triplets above)----------------------------------------|

Solo 2 (2:10)
G|--------------------------------------------------------------------------|
D|-----------8--------------------------------------------------------------|
A|--6--6--9-----------5--8--------------------------------------------------|
E|--------------6--6--------------------------------------------------------|
B|--------------------------------------------------------------------------|

G|--------------------------------------------------------------------------|
D|-----------5--------------------------------------------------------------|
A|--6--6--9-----(--------------------------4-5)-----------------------------|
E|--------------(6-6-6-6-6-6-6-6-6-6-6-6-6----)-----------------------------|
B|----------------------(triplets above)------------------------------------|

G|--------------------------------------------------------------------------|
D|-----------8--------------------------------------------------------------|
A|--6--6--9-----------5--8--------------------------------------------------|
E|--------------6--6--------------------------------------------------------|
B|--------------------------------------------------------------------------|

G|--------------(--7-7-7-7-7---7-7-7----)-----------------------------------|
D|--------------(--8-8-8-8-8---8-8-8----)-----------------------------------|
A|-----------6--(--------------------4-5)-----------------------------------|
E|--4--4--7-----(6-6-6-6-6-6-6-6-6-6----)-----------------------------------|
B|------------------(triplets above)----------------------------------------|

G|--------------------------------------------------------------------------|
D|-----------8--------------------------------------------------------------|
A|--6--6--9-----------5--8--------------------------------------------------|
E|--------------6--6--------------------------------------------------------|
B|--------------------------------------------------------------------------|

G|---------------(--7-7-7-7-7---7-7-7----)----------------------------------|
D|-----------8---(--8-8-8-8-8---8-8-8----)----------------------------------|
A|--6--6--9------(--------------------4-5)----------------------------------|
E|---------------(6-6-6-6-6-6-6-6-6-6----)----------------------------------|
B|--------------------(triplets above)--------------------------------------|

G|--------------------------------------------------------------------------|
D|-----------8--------------------------------------------------------------|
A|--6--6--9-----------5--8--------------------------------------------------|
E|--------------6--6--------------------------------------------------------|
B|--------------------------------------------------------------------------|

G|--------------(--7-7-7-7-7---7-7-7----)-----------------------------------|
D|--------------(--8-8-8-8-8---8-8-8----)-----------------------------------|
A|-----------6--(--------------------4-5)-----------------------------------|
E|--4--4--7-----(6-6-6-6-6-6-6-6-6-6----)-----------------------------------|
B|------------------(triplets above)----------------------------------------|

Bridge (2:43)
G|--------------------------------------------------------------------------|
D|--------3--6-----------------------8-----------8--------------------------|
A|--4--4-----------------6--6--6--9-----6--6--9-----------------------------|
E|--------------4--4--7-----------------------------------------------------|
B|--------------------------------------------------------------------------|


G|--------------------------------------------------------------------------|
D|--------3--6--------------------------------------------------------------|
A|--4--4-----------------6-----------6--------------------------------------|
E|--------------4--4--7-----4--4--7-----------------------------------------|
B|--------------------------------------------------------------------------|

G|--(--7-7-7-7-7---7-7-7----------------------------)-----------------------|
D|--(--8-8-8-8-8---8-8-8----------------------------)-----------------------|
A|--(--------------------------------------------4-5)-----------------------|
E|--(6-6-6-6-6-6-6-6-6-6-6-6-6-6-6-6-6-6-6-6-6-6----)-----------------------|
B|-------------(8 sets of triplets)-----------------------------------------|


Chorus (3:01)
G|--------------------------------------------------------------------------|
D|-----------8-----------------------5-----------------------5--------------|
A|--6--6--9-----------5--8--6--6--9-----------5--8--6--6--9-----------5--8--|
E|--------------6--6--------------------6--6--------------------6--6--------|
B|--------------------------------------------------------------------------|

G|--------------(--7-7-7-7-7---7-7-7----)-----------------------------------|
D|--------------(--8-8-8-8-8---8-8-8----)-----------------------------------|
A|-----------6--(--------------------4-5)-----------------------------------|
E|--4--4--7-----(6-6-6-6-6-6-6-6-6-6----)-----------------------------------|
B|------------------(triplets above)----------------------------------------|

Chorus Extension (3:17)
G|--------------------------------------------------------------------------|
D|-----------6---------8--86----------8-------------------------------------|
A|--6--6--9-------6h8-------86--6--9-----------5--8-------------------------|
E|--------------6------------------------6--6-------------------------------|
B|--------------------------------------------------------------------------|

G|--------------------------------------------------------------------------|
D|-----------8--------------------------------------------------------------|
A|--6--6--9-----------5--8--------------------------------------------------|
E|--------------6--6--------------------------------------------------------|
B|--------------------------------------------------------------------------|

G|--------------(--7-7-7-7-7---7-7-7----)-----------------------------------|
D|--------------(--8-8-8-8-8---8-8-8----)-----------------------------------|
A|-----------6--(--------------------4-5)-----------------------------------|
E|--4--4--7-----(6-6-6-6-6-6-6-6-6-6----)-----------------------------------|
B|------------------(triplets above)----------------------------------------|

G|--------------------------------------------------------------------------|
D|-----------8--------------------------------------------------------------|
A|--6--6--9-----------5--8--------------------------------------------------|
E|--------------6--6--------------------------------------------------------|
B|--------------------------------------------------------------------------|

G|--------------------------------------------------------------------------|
D|--------------------------------------------------------------------------|
A|-----------6--(--------------------------4-5)-----------------------------|
E|--4--4--7-----(6-6-6-6-6-6-6-6-6-6-6-6-6----)-----------------------------|
B|----------------------(triplets above)------------------------------------|

Solo 3 (3:41)
Staccato Triplets
G|--------------------------------------------------------------------------|
D|--------8--------8--------------------------------------------------------|
A|--6--9-----6--9--------5--8-----5--8--------6--------6-----5--8-----5--8--|
E|--------------------6--------6--------4--7-----4--7-----6--------6--------|
B|--------------------------------------------------------------------------|

G|--------------------------------------------------------------------------|
D|--------8--------8--------------------------------------------------------|
A|--6--9-----6--9--------5--8-----5--8--------6--------6//------------------|
E|--------------------6--------6--------4--7-----4--7-----------------------|
B|--------------------------------------------------------------------------|

Climb down leading into solo (3:54)
Play faster than written
G|--------------------------------------------------------------------------|
D|------20----20-18----18-16----16-15---------------------------------------|
A|--(//)---20-------18-------16---------------------------------------------|
E|--------------------------------------------------------------------------|
B|--------------------------------------------------------------------------|

Solo 3 (3:57)
G|--------------------------------------------------------------------------|
D|--------------------------------------------------------------------------|
A|--6----------------------------------------(triplets below)---------------|
E|-----------4--6------------------------(6-----6-6-6----------)------------|
B|-----4--7--------0--1--2--4--4--7--9---(--0-0-------0-0-0-2-3)------------|

G|--------------------------------------(--7-7-7-7-7---7-7-7----)-----------|
D|--------------------------------------(--8-8-8-8-8---8-8-8----)-----------|
A|-----------------------------------6--(--------------------4-5)-----------|
E|----------4---6-----------4--4--7-----(6-6-6-6-6-6-6-6-6-6----)-----------|
B|--4--4--7--------0--1--2------------------(triplets above)----------------|

G|--------------------------------------------------------------------------|
D|--------------------------------------------------------------------------|
A|--6--6--------------------------------------------------------------------|
E|-----------4--6\(0)--------------------4--6--6--6/19-19-19-19-19-19-19----|
B|--------7------------0--1--2--4--4--7-------------------------------------|


G|--------------------------------------------------------------------------|
D|--------------------------------------------------------------------------|
A|-----------------------------------6--------------------------------------|
E|-----------4--6--6--------4--4--7-----------------------------------------|
B|--4--4--7-----------0--2--------------------------------------------------|

Ending (4:27)
G|--------------------------------------------------------------------------|
D|--------------------------------------------------------------------------|
A|--------------------------------------------------------------------------|
E|--6----4------------------------------------------------------------------|
B|------------7----0/4------------------------------------------------------|

Hard to hear noises starting from last note
G|--------------------6h8-6h8-----------------------------------------------|
D|----------------------------8\7\6\4-6-------------------------------------|
A|---6-6-6------------------------------456----6--4-------------------------|
E|-------------------------------------------------6542---------------------|
B|--4-4-4-44444----------------------------------------4--------------------|

(4:44)
G|--------------------------------------------------------------------------|
D|--------------------------------------------------------------------------|
A|--///15\\\----------------------------------------------------------------|
E|--------------------------------------------------------------------------|
B|--------------------------------------------------------------------------|



| /  slide up
| \  slide down
| h  hammer-on
| p  pull-off
| ~  vibrato
| +  harmonic
| x  Mute note
=============================================================================


            
            
Suggest correction
Creating personal tab
Creating personal tab
You can edit any tab online and save it as your Personal.

You can edit, replace or remove any tab part or add personal notes – all changes will be seen only by you.

Personal tabs can be accessed anytime from any device, even offline.
Learn more »
Give kudos to tab author, rate the tab!
1 2 3 4 5
comments
print report bad tab
guest
You may want to rate the tab now too:
select rating
Wanna post a correction for this tab? Suggest correction