Oops, an error
Loading. Please wait.

Coqueta tab

version 1
version 1

Whole song

109 views 1 this week
no commentswrite comment
1 2 3 4 5
3 more votes to show rating
add to favorites
×
Save as Personal and add changes to this tab that will be seen only by you. Learn more ›
×
You can save this tab as Personal to edit and correct it or add notes. All changes will be seen only by you. Learn more »
launch autoscroll
font size
0
reset
how to read this tab
guitar tuner
edit
Autoscroll
slow
fast
+/-
esc
set tempo
stop
Ahí les va esta rola de los nietos
como no estaba, me dedique a subirla
espero que les guste y les sirva.

Le dedico esta canción con todo cariño a
mi amiga Melissa que le encanta.

Bueno pues, ahí les va la rola:

Intro:
(vean el coro para saber el acompañamiento)

e|----11/12--11-11----11/12-14-11--
B|-12--------------12--------------
G|---------------------------------
D|---------------------------------
A|---------------------------------
E|---------------------------------

e|-6-6-6--4-4-4--2-2--0------------
B|-7-7-7--5-5-5--4-4--2------------ 
G|---------------------------------
D|---------------------------------
A|---------------------------------
E|---------------------------------

e|---------------------------------
B|---0-2-0---0-2-0-2-4-------------    |Donde comienza
G|-3-------3-----------4-3*-------- 
D|---------------------------------    |pasea por la escala.
A|---------------------------------
E|---------------------------------

   F#  G#  F#  G#  F#  G#  A#
e|-2---4---2---4---2---4---6----
B|-2---4---2---4---2---4---6----
G|-3---5---3---5---3---5---7---- 
D|-4---6---4---6---4---6---8----
A|-4---6---4---6---4---6---8----
E|-2---4---2---4---2---4---6----


B                                E
Encuentras la ocación para coquetearme
       F#                           B
Buscas que mi corazon brinque y se exalte
   B                              E
Caminas muy despacio para que te mire
         F#                        B
y hasta mi llega el olor de tu perfume
       G# *                      D#m **
Lo que no puedo negar, que eres bella de verdad
       E                          F#
pero juegas al amor no quieres a nadie...

-->Estos son un disque bajeo de la rola:
   *              **
e|---------------------------------
B|---------------------------------
G|---------------------------------
D|-----4-6-----------6-8-----------
A|-4-6-----------6-8---------------
E|------------------------7\0--0--- \ 
                               Down.
Lo anterior se va a usar
varias veces durante la rola
lo voy a indicar con los asteriscos.


  B                        E
Te marchas y me dejas pensativo
      F#                     B
si me amas o solo juegas conmigo
     G# *                   D#m **
prefiero imaginar, que yo soy tu hombre ideal
       E                         F#
y que tu me quieres y sueñas conmigo...

Coro:
     B             D#m
Voy a pensar, voy a buscar
     E
la forma de no mirarte, por que voy a enamorarme
           F#
y entonces yo perdere...

     B             D#m
Voy a pensar, voy a buscar
      E
una forma más precisa, que te llegue mas precisa
       F#
y me ruegues por amor
        B               D#m    E
lo voy a lograr, te voy a quitar
                F#        B
esa forma de mirar... coqueta


e|----11/12--11-11----11/12-14-11--
B|-12--------------12--------------
G|---------------------------------
D|---------------------------------
A|---------------------------------
E|---------------------------------

e|-6-6-6--4-4-4--2-2--0------------
B|-7-7-7--5-5-5--4-4--2------------ 
G|---------------------------------
D|---------------------------------
A|---------------------------------
E|---------------------------------

e|---------------------------------
B|---0-2-0---0-2-0-2-4-------------    |Donde comienza
G|-3-------3-----------4-3*-------- 
D|---------------------------------    |pasea por la escala.
A|---------------------------------
E|---------------------------------

   F#  G#  F#  G#  F#  G#  A#
e|-2---4---2---4---2---4---6----
B|-2---4---2---4---2---4---6----
G|-3---5---3---5---3---5---7---- 
D|-4---6---4---6---4---6---8----
A|-4---6---4---6---4---6---8----
E|-2---4---2---4---2---4---6----


       B                               E
Sabes que soy un don juan y quieres domarme
          F#                           B
quieres acabar conmigo quieres conquistarme
      G# *                   D#m ** E                          F#
esta guerra que empezamos sin quererlo

     B            D#m
voy a luchar, voy a lograr
         E
que me busques y me cuentes

que en tu vida estoy presente
       F#
y que ya no puedes más

     B            D#m
voy a luchar, voy a lograr
     E
la forma de demostrarte

que te quiero hasta la muerte
          F#
pero quiero que seas tu
          B                    D#m
quien empieze a hablar, empieze a contar
         E              F#
que el amor puede triunfar

     B            D#m
voy a pensar, voy a buscar
      E
una forma más precisa que me llegue mas de prisa
       F#
y me ruegues por amor
        B               D#m
lo voy a lograr, te voy a quitar
      E         F#        B
esa forma de mirar... coqueta.


Outro:
(acompañamiento como el coro)

e|----11/12--11-11----11/12-14-11-11-11-11-11-11--
B|-12--------------12----------12--0-12--0-12--0--
G|------------------------------------------------
D|------------------------------------------------
A|------------------------------------------------
E|------------------------------------------------


Asi sigue toda la cancion,
cualkier cosa avisenme ahí esta mi mail:
                            mingo_garcia@
Desde Cd. Obregon, Son.

            
            
Suggest correction
Creating personal tab
Creating personal tab
You can edit any tab online and save it as your Personal.

You can edit, replace or remove any tab part or add personal notes – all changes will be seen only by you.

Personal tabs can be accessed anytime from any device, even offline.
Learn more »
Give kudos to tab author, rate the tab!
1 2 3 4 5
comments
print report bad tab
guest
Wanna post a correction for this tab? Suggest correction