Oops, an error
Loading. Please wait.

Coqueta tab

version 2
version 2

Whole song

83 views 1 this week
no commentswrite comment
1 2 3 4 5
3 more votes to show rating
add to favorites
×
Save as Personal and add changes to this tab that will be seen only by you. Learn more ›
×
You can save this tab as Personal to edit and correct it or add notes. All changes will be seen only by you. Learn more »
launch autoscroll
font size
0
reset
how to read this tab
guitar tuner
edit
Autoscroll
slow
fast
+/-
esc
set tempo
stop
Esa Gente que le gusta requintear aki les dejo esta rola
de los nietos de sinalo que esta pero si identica a la original
junto con los arreglitos y todala cosa para que les salga chingona
para dedicarla a las chicas guapas del

ITG Guaymas Sonora Mexico compas jejeje


e|----11/12--11-11----11/12-14-11--
B|-12--------------12--------------
G|---------------------------------
D|---------------------------------
A|---------------------------------
E|---------------------------------

e|-6-6-6--4-4-4--2-2--0------------
B|-7-7-7--5-5-5--4-4--2------------ <--(x2)
G|---------------------------------
D|---------------------------------
A|---------------------------------
E|---------------------------------

e|---------------------------------------------------------------
B|---0-2-4-2-0---2-0---2-0---------------------------------------
G|-------------3-----3-------4-3-1-------------------------------
D|---------------------------------4-2-1-------4-6-4-2-4-2-1-----
A|---------------------------------------4-2-6---------------4-2-
E|---------------------------------------------------------------

   F#  G#  F#  G#  F#  G#  A#
e|-2---4---2---4---2---4---6----
B|-2---4---2---4---2---4---6----
G|-3---5---3---5---3---5---7---- <--|Esto va algo rápido.
D|-4---6---4---6---4---6---8----
A|------------------------------
E|------------------------------

B                     (arreglo 1) E
Encuentras la ocación para coquetearme (arreglo 2)
       F#                           B
Buscas que mi corazon brinque y se exalte (arreglo 3)
   B                  (arreglo 1) E
Caminas muy despacio para que te mire (arreglo 2)
         F#                        B
y hasta mi llega el olor de tu perfume  (arreglo 4)
       G#                        D#m
Lo que no puedo negar, que eres bella de verdad
       E             (arreglo 5)   F#
pero juegas al amor no quieres a nadie...


  B             (arreglo 1) E
Te marchas y me dejas pensativo  (arreglo 2)
      F#                     B
si me amas o solo juegas conmigo (arreglo 4)
     G#                     D#m
prefiero imaginar, que yo soy tu hombre ideal
       E           (arreglo 5)   F#
y que tu me quieres y sueñas conmigo...

Coro:
     B             D#m
Voy a pensar, voy a buscar
     E
la forma de no mirarte, por que voy a enamorarme
 (arreglo 5)     F#
y entonces yo perdere...

     B             D#m
Voy a pensar, voy a buscar
      E
una forma más precisa, que te llegue mas precisa
    (arreglo 5)   F#
y me ruegues por amor
        B               D#m    E
lo voy a lograr, te voy a quitar
   (arreglo5)  F#        B
esa forma de mirar... coqueta

e|----11/12--11-11----11/12-14-11--
B|-12--------------12--------------
G|---------------------------------
D|---------------------------------
A|---------------------------------
E|---------------------------------

e|-6-6-6--4-4-4--2-2--0------------
B|-7-7-7--5-5-5--4-4--2------------ <--(x2)
G|---------------------------------
D|---------------------------------
A|---------------------------------
E|---------------------------------

e|---------------------------------------------------------------
B|---0-2-4-2-0---2-0---2-0---------------------------------------
G|-------------3-----3-------4-3-1-------------------------------
D|---------------------------------4-2-1-------4-6-4-2-4-2-1-----
A|---------------------------------------4-2-6---------------4-2-
E|---------------------------------------------------------------

   F#  G#  F#  G#  F#  G#  A#
e|-2---4---2---4---2---4---6----
B|-2---4---2---4---2---4---6----
G|-3---5---3---5---3---5---7---- <--|Esto va algo rápido.
D|-4---6---4---6---4---6---8----
A|------------------------------
E|------------------------------

       B                  (arreglo 1)   E
Sabes que soy un don juan y quieres domarme (arreglo 2)
          F#                           B
quieres acabar conmigo quieres conquistarme (arreglo 4)
      G#                     D#m
me conoces de verdad, sabes que voy a ganar
       E             (arreglo 5)  F#
esta guerra que empezamos sin quererlo

     B            D#m
voy a luchar, voy a lograr
         E
que me busques y me cuentes

que en tu vida estoy presente
     (arreglo 5)  F#
y que ya no puedes más

     B            D#m
voy a luchar, voy a lograr
     E
la forma de demostrarte

que te quiero hasta la muerte
      (arreglo 5)   F#
pero quiero que seas tu
          B                    D#m
quien empieze a hablar, empieze a contar
         E              F#
que el amor puede triunfar

     B            D#m
voy a pensar, voy a buscar
      E
una forma más precisa que me llegue mas de prisa
     (arreglo 5)  F#
y me ruegues por amor
        B               D#m
lo voy a lograr, te voy a quitar
      E         F#        B
esa forma de mirar... coqueta.


e|----11/12--11-11----11/12-14-11-11-11-11-11-11--
B|-12--------------12----------12--0-12--0-12--0--
G|------------------------------------------------
D|------------------------------------------------
A|------------------------------------------------
E|------------------------------------------------

   (arreglo 1)  E          (arreglo 2)   F#
e|--------------7--   e|-------------------
B|--------------9--   B|-----------------7-
G|--------------9--   G|-----------------9-
D|--9--7--6-----9--   D|-----------------8-
A|-----------9--7--   A|-----77-66-77-88-9-
E|--------------7--   E|---77--------------

   (arreglo 3)              B      (arreglo 4)      G#
e|----------------------------  e|------------------4---
B|----------------------------  B|------------------4---
G|----------------------------  G|------------------5---
D|--9-8-6---8-6-----6---------  D|--9-8-6---8-6-----6---
A|--------9-----9-8---9-8-6-9-  A|--------9-----9-8-----

  (arreglo 5)  F#
e|----------------
B|-------------7--
G|-------------9--
D|-------------8--
A|-----7-6-7-8-9--
E|----------------

por si no saben los tonos aki estan

   B   E   F#  G#  D#m
e|-7---7-------4----6
B|-7---9---7---4---=7
G|-8---9---9---5----8
D|-9---9---8---6----8
A|-----7---9--------6
E|-----7------------6

para mas rolitas nomas diganme ya se la saben este es mi correo
ramon_cocoba@
agreguen no hay pedo.... pero solo las chicas jejejej

            
            
Suggest correction
Creating personal tab
Creating personal tab
You can edit any tab online and save it as your Personal.

You can edit, replace or remove any tab part or add personal notes – all changes will be seen only by you.

Personal tabs can be accessed anytime from any device, even offline.
Learn more »
Give kudos to tab author, rate the tab!
1 2 3 4 5
comments
print report bad tab
guest
Wanna post a correction for this tab? Suggest correction