Oops, an error
Loading. Please wait.

La Chica Del Bikini Azul tab

67 views 1 this week
no commentswrite comment
1 2 3 4 5
3 more votes to show rating
add to favorites
×
Save as Personal and add changes to this tab that will be seen only by you. Learn more ›
×
You can save this tab as Personal to edit and correct it or add notes. All changes will be seen only by you. Learn more »
launch autoscroll
font size
0
reset
how to read this tab
guitar tuner
edit
Autoscroll
slow
fast
+/-
esc
set tempo
stop
 y ahora si q¡ arriba el norte arriba Delicias Chihuahua MEX.
INTRO:
E/-7-5-4----------5-5-4-5-5/7-5-4-------------
B/-9-7-5----------7-7-5-7-7/9-7-5-5----------
G/--------4/5v--5--------------------4----------
D/--------6/5v--6-------------------------------
A/-------------------------------------------------
E/-------------------------------------------------


E/-7-5-4------------9--7--4-4/5-7-5-4-20-----
B/-9-7-5-----------10--9--5--5/7-------------------
G/--------4/5v--5-------------------------------------
D/--------6/5v--6-------------------------------------
A/----------------------------------------------------
E/----------------------------------------------------

MAPG:
ya no se          si estoy bien
De repente        el calor
debe haber       un lugar
E/-------5----------7-----------------------------
B/----5----------7-------------------------------
G/--6----------8---------------------------------
D/---------------------------------------------
A/----------------------------------------------------
E/----------------------------------------------------

Toca con E en 7º trasto, A en 5º,B en 7 pa tocar mejor el ritmo.

Y QUI TA LA ROLA:

 E
Solo y triste bajo el sol
             E7
en la playa busco amor
      MAPG
        A        B  B7   E
debe haber un lugar para mi

 E
Gente viene gente va
                      E7
con las aguas luz y sal
      MAPG
               B    B7     E
De repente el calor sube mas

E     E7      A
De pronto flash
      B        B7       E
La chica del bikini azul
E       E7    A
De pronto flash
   B         B7       E
Cambio el color del mar

E     E7    A
Una y no mas
     B   B7        E
Es ella mi oportunidad
  E  E7    A     B     B7    E
Yo tengo alas y no puedo fallar

****INTRO****


E      E7      A
De pronto flash
       B       B7      E
La chica del bikini azul
E    E7      A
Me miro y flash
   B      B7       E
Hablamos  sin hablar...

si alguien quiere alguna otra rola de los nietos
solo aviceme y pidala en el atame¡¡¡¡
                               MAPG

            
            
Suggest correction
Creating personal tab
Creating personal tab
You can edit any tab online and save it as your Personal.

You can edit, replace or remove any tab part or add personal notes – all changes will be seen only by you.

Personal tabs can be accessed anytime from any device, even offline.
Learn more »
Give kudos to tab author, rate the tab!
1 2 3 4 5
comments
print report bad tab
guest
Wanna post a correction for this tab? Suggest correction