Oops, an error
Loading. Please wait.

Ven Por Que Te Necesito tab

version 1
version 1

Whole song

7 views 1 this week
no commentswrite comment
1 2 3 4 5
3 more votes to show rating
add to favorites
×
Save as Personal and add changes to this tab that will be seen only by you. Learn more ›
×
You can save this tab as Personal to edit and correct it or add notes. All changes will be seen only by you. Learn more »
launch autoscroll
font size
0
reset
how to read this tab
guitar tuner
edit
Autoscroll
slow
fast
+/-
esc
set tempo
stop
esta rola ba pa mi compa daniel ezpinosa. mi correo es
amir20_ar@
posi tienen alguna duda.


  X2 X4 aki es el rasgueo del intro de la rola
e-4--4--
B-6--7--
G-6--6-- x 3
D-6--6--
A-4--4--
E-4--4--


 C#                                D#m
cuando pienso en ti mi tristeza crece
F#                         G#
tu recuerdo hiere mi corazon
F#          C#                    G#  F#                   C#
y quisiera verte cuendo pienzo en ti     cuando pienzo en ti

D#                                  F#   E-222-111-
  cuando te vere otra vez mi vida cuando B---------

D#m               G#              C#
paso noches imposibles sin tu calor    B-4-6-4-----
                                       G------6-8-6
C#                                F#
cuando te vere otra vez mi vida cuando
D#m                  G#           C# Fm    F#   G#      C#     Fm
son las noches imposibles soñandoteeeeee veeen veeen mi amoooor
 F#       G#       C#  Fm E-----4------4--
ven A alegrar MI vida     B------6------6-
                          G-6666---5555---
F#    G#     C#
veen veen MI amoooor   E-6-4-2-2/4--
                       B-7-6-4-4/6--
F#                 G#      F#              G#
son las noches imposibles solo ya no puedo mas
Fm                  A#m
estu aucensia la razon
F#                  G#           C#
ven por que te necesito mia mi amoor

 solo

e-4/3-4/3-4/3-4/3-4/3-4/3-4/3-4/6--2----66666-4-22-2-----------
B-6/4-6/4-6/4-6/4-6/4-6/4-6/4-6/7---2---77777-6-44-4-2-1-2-----
G------------------------------------3--------------------1-3-1
D--------------------------------------------------------------
A--------------------------------------------------------------
E--------------------------------------------------------------


e-4/3-4/3-4/3-4/3-4/3-4/3-4/3-4/6--2----66666-4-22-2-------
B-6/4-6/4-6/4-6/4-6/4-6/4-6/4-6/7---2---77777-6-44-4-2-1-2-
G------------------------------------3---------------------
D----------------------------------------------------------
A----------------------------------------------------------
E----------------------------------------------------------


e----------------------------
B-2-1------------------1-2---
G-----3-1-----------1-3------
D---------5-4-3-4-5----------
A----------------------------
E----------------------------


C#                                  F#
  cuando te vere otra vez mi vida cuando
D#m                  G#           C# Fm    F#   G#      C#     Fm
son las noches imposibles soñandoteeeeee veeen veeen mi amoooor
 F#       G#       C#  Fm E-----4------4--
ven A alegrar MI vida     B------6------6-
                          G-6666---5555---
F#    G#     C#
veen veen MI amoooor   E-6-4-2-2/4--
                       B-7-6-4-4/6--
F#                 G#      F#              G#
son las noches imposibles solo ya no puedo mas
Fm                  A#m
estu aucensia la razon
F#                  G#           C#  Fm
ven por que te necesito mia mi amooooor
F#        G#      C#-Fm F#                 G#            C#
ven A alegrar MI vida   ven por qte te necesito mia mi amoooor


e----------------4-----------
B-2-1------------6-----------
G-----3-1--------5-----------
D---------5-4-3--6-----------
A----------------------------
E----------------------------

ahi esta la rolita le puse unos adornos esos se repiten toda la cancion
poreso no los puse varias veses bueno mi correo es amir20_ar@
posi tienen alguna duda.

            
            
Suggest correction
Creating personal tab
Creating personal tab
You can edit any tab online and save it as your Personal.

You can edit, replace or remove any tab part or add personal notes – all changes will be seen only by you.

Personal tabs can be accessed anytime from any device, even offline.
Learn more »
Give kudos to tab author, rate the tab!
1 2 3 4 5
comments
print report bad tab
guest
Wanna post a correction for this tab? Suggest correction