Oops, an error
Loading. Please wait.

Ven Por Que Te Necesito tab

version 2
version 2

Whole song

40 views 1 this week
no commentswrite comment
1 2 3 4 5
3 more votes to show rating
add to favorites
×
Save as Personal and add changes to this tab that will be seen only by you. Learn more ›
×
You can save this tab as Personal to edit and correct it or add notes. All changes will be seen only by you. Learn more »
launch autoscroll
font size
0
reset
how to read this tab
guitar tuner
edit
Autoscroll
slow
fast
+/-
esc
set tempo
stop
Desde Chihuahua, Chih.

Rasgueo del intro
e|-4--4--
B|-6--7--
G|-6--6-- (X3)
D|-6--6--
A|-4--4--
E|-4--4--


 C#                                D#m
cuando pienso en ti mi tristeza crece
F#                         G#
tu recuerdo hiere mi corazón
F#          C#                    G#  F#                   C#
y quisiera verte cuendo pienso en ti     cuando pienso en ti

                            (Arreglo 1) F# (Arreglo 2)
cuando te vere otra vez mi vida cuando

D#m               G#              C# (Arreglo 3)
paso noches imposibles sin tu calor

C#                           (Arreglo 4)F# (Arreglo 2)
cuando te vere otra vez mi vida cuando
D#m                  G#           C# Fm(Arreglo 5)
F#   G#      C# (Arreglo 6)Fm
son las noches imposibles soñandoteeeeee veeen veeen mi amoooor
 F#       G#       C#(Arreglo 7)Fm
ven a alegrar mi vida

F#    G#     C# (Arreglo 6)
veen veen mi amoooor

F#                 G#(Arreglo 8)F#         G# (Arreglo 8)
son las noches imposibles solo ya no puedo más
Fm  (Arreglo 9)   A#m
estu ausencia la razón
F#                  G#           C#
ven por que te necesito mia mi amoor

Requinto:

e|-4/3-4/3-4/3-4/3-4/3-4/3-4/3-4/6------66666-4-22-2------------
B|-6/4-6/4-6/4-6/4-6/4-6/4-6/4-6/7---6---77777-6-44-4-2-1-2-----
G|------------------------------------6--------------------1-3-1
D|-------------------------------------8------------------------


e|-4/3-4/3-4/3-4/3-4/3-4/3-4/3-4/6------66666-4-22-2--------
B|-6/4-6/4-6/4-6/4-6/4-6/4-6/4-6/7---6---77777-6-44-4-2-1-2-
G|------------------------------------6---------------------
D|-------------------------------------8--------------------


e|----------------------------
B|-2-1------------------1-2---
G|-----3-1-----------1-3------
D|---------5-4-3-4-5----------


C#                             (Arreglo 1) F# (Arreglo 2)
  cuando te vere otra vez mi vida cuando
D#m                  G#           C# Fm(Arreglo 10)F#
G#      C#(Arreglo 6)Fm
son las noches imposibles soñandoteeeeee veeen veeen mi amoooor
 F#       G#       C#(Arreglo 7)Fm
ven a alegrar mi vida

F#    G#     C# (Arreglo 6)
veen veen mi amoooor
F#                 G#(Arreglo 8)F#         G# (Arreglo 8)
son las noches imposibles solo ya no puedo más
Fm  (Arreglo 9)   A#m
estu ausencia la razón
F#                  G#           C#  Fm
ven por que te necesito mia mi amooooor
F#        G#      C#-Fm(Arreglo) F#     (Arreglo 11)
  G#            C#
ven A alegrar MI vida   ven porque te te necesito mia mi amoooor

FINAL:
e|----------------4-----------
B|-2-1------------6-----------
G|-----3-1--------5-----------
D|---------5-4-3--6-----------
A|----------------4-----------
E|----------------4-----------


Arreglo 1:

A|-----9/11-9--
E|-9-12-------12

Arreglo 2:

e|--6-6-----4-4----2-2
B|-7---7--6----6--4--


Arreglo 3:
G|-8-10-8---8---
D|-------11---10

Arreglo 4:
A|------9-11-9-11-9-----
E|-9-12-------------12-9

Arreglo 5:
e|--8-8/9-8--------
B|-9--------11-9-8-

Arreglo 6:
e|-6-6-4-2-2/4-4
B|-7-7-6-4-4/6-6

Arreglo 7:
B|--------------9--------------9---
G|-----------10--10----------10-10-
D|-11-11-11---------10-10-10-------

Arreglo 8:
D|-8-9-9/10

Arreglo 9:
e|-13-11--9-8-6/8-6
B|-14-13-11-9-7/9-7

Arreglo 10:
e|--------9-11-11/12-11-11/12-11-9--------
B|-9-10-11------------------------12-10-9-

Arreglo 11:
e|-4/6-4-2-1
B|-6/7-6-4-2

A ver si sale man pero tu la cantas

            
            
Suggest correction
Creating personal tab
Creating personal tab
You can edit any tab online and save it as your Personal.

You can edit, replace or remove any tab part or add personal notes – all changes will be seen only by you.

Personal tabs can be accessed anytime from any device, even offline.
Learn more »
Give kudos to tab author, rate the tab!
1 2 3 4 5
comments
print report bad tab
guest
Wanna post a correction for this tab? Suggest correction