Oops, an error
Loading. Please wait.

Lluvia tab

10 views 1 this week
no commentswrite comment
1 2 3 4 5
3 more votes to show rating
add to favorites
×
Save as Personal and add changes to this tab that will be seen only by you. Learn more ›
×
You can save this tab as Personal to edit and correct it or add notes. All changes will be seen only by you. Learn more »
launch autoscroll
font size
0
reset
how to read this tab
guitar tuner
edit
Autoscroll
slow
fast
+/-
esc
set tempo
stop
hola, este es mi primer aporte,
es una correccion de la version existente y le incluyo la intro =P

Intro:
   D         A       Bm      G
e|-----------------------------------------
B|-----------------------------------------
G|-7-----7-7p9----7p9-7----6-6p7-6---------
D|-----7--------7--------9---------9-9-7---
A|-----------------------------------------
E|-----------------------------------------

  D               A                Bm     G        D
e|------------------------------------7p9/10-9-7-7-5--
B|-------------------10/12-10-------------------------
G|-7-----7-9-9/11-9------------7p9-7------------------
D|-----7----------------------------------------------
A|----------------------------------------------------
E|----------------------------------------------------


          D      A        Bm
No sé si allí está lloviendo

           G          Em
aquí la lluvia es un telón
 A                   D
sin intenciones de abrir.

            D  A             Bm
Y estoy sin ti siempre esperando
             G        Em
que en el teléfono tu voz
A                 D
me haga volver a vivir.

          A               Bm
Porqué tenemos que estar así
            G           D
tan distanciados llorando
             A           Bm
porqué nos fuimos alejando

     G-D           A
amor mío, para tu alma,
        Bm        G     D-A
para mi alma, pobres almas


   D         A       Bm      G
e|-----------------------------------------
B|-----------------------------------------
G|-7-----7-7p9----7p9-7----6-6p7-6---------
D|-----7--------7--------9---------9-9-7---
A|-----------------------------------------
E|-----------------------------------------
  LA  larala   larala
  D               A                Bm     G        D
e|------------------------------------7p9/10-9-7-7-5--
B|-------------------10/12-10-------------------------
G|-7-----7-9-9/11-9------------7p9-7------------------
D|-----7----------------------------------------------
A|----------------------------------------------------
E|----------------------------------------------------
  LA  larala   larala
          G               Bm
Igual que ayer sigue lloviendo
           G        Em
y en el teléfono tu voz
 A                   D
queda sin hoy ni después

            G            Bm
Igual que ayer muero esperando
          G           Em
y replanteando al corazón
C                  A
tanto dolor sin porqué.

Bm        F#m            G
Porqué tenemos que estar así
            A        D
tan distanciados llorando
Bm           F#m           G
porqué nos fuimos alejando

     D   G        F#m
amor mío, para tu alma,
        Bm        G
para mi alma, pobres almas
     D   G        F#m
amor mío, para tu alma,
        Bm        G
para mi alma, pobres almas

   D         A       Bm      G
e|-----------------------------------------
B|-----------------------------------------
G|-7-----7-7p9----7p9-7----6-6p7-6---------
D|-----7--------7--------9---------9-9-7---
A|-----------------------------------------
E|-----------------------------------------
  LA  larala   larala
  D               A                Bm     G        D
e|------------------------------------7p9/10-9-7-7-5--
B|-------------------10/12-10-------------------------
G|-7-----7-9-9/11-9------------7p9-7------------------
D|-----7----------------------------------------------
A|----------------------------------------------------
E|----------------------------------------------------
  LA  larala   larala


culaquier duda, consejo o lo que sea me escriben

            
            
Suggest correction
Creating personal tab
Creating personal tab
You can edit any tab online and save it as your Personal.

You can edit, replace or remove any tab part or add personal notes – all changes will be seen only by you.

Personal tabs can be accessed anytime from any device, even offline.
Learn more »
Give kudos to tab author, rate the tab!
1 2 3 4 5
comments
print report bad tab
guest
Wanna post a correction for this tab? Suggest correction