Oops, an error
Loading. Please wait.

Un Poquito De Celos tab

version 2
version 2

Whole song

34 views 1 this week
no commentswrite comment
1 2 3 4 5
3 more votes to show rating
add to favorites
×
Save as Personal and add changes to this tab that will be seen only by you. Learn more ›
×
You can save this tab as Personal to edit and correct it or add notes. All changes will be seen only by you. Learn more »
launch autoscroll
font size
0
reset
how to read this tab
guitar tuner
edit
Autoscroll
slow
fast
+/-
esc
set tempo
stop
INTRODUCCON


1------------------------------------------------------------
2----------------2----3---3---------5---3---2-------------
3----------4-------------------4--------------------4------
4-----4-----------------------------------------------------
5------------------------------------------------------------
6------------------------------------------------------------


1-------------------------------------------------------------
2--5---3--2------------7---5---3---------------------------
3-------------------------------------------------------------
4-----------------4------------------------------------------
5-------------------------------------------------------------
6-------------------------------------------------------------

     
1-------------------------------------------------------------
2-----------------2---3---2-----------5---3---2------------
3-----------4------------------4-----------------------------
4-------4-----------------------------------------------------
5-------------------------------------------------------------
6-------------------------------------------------------------
       

1-------------------------------------------------------------
2-----5---3---2------5---3---2-----------------------------
3-----------------------------------------4------------------
4-------------------------------------------------------------
5-------------------------------------------------------------
6-------------------------------------------------------------


TODO SOBRE: F#   Bm    x2
Bm                       F#
Como decía mi abuela 
                      Bm
Picarona  de buenas


                                     F#
Pa que el amor no se aburra 
      Bm
Hay que darle siempre tema
D      A7
Contigo pan y cebolla 
 F#7      Bm
Pero además de la olla 
       A7/E      A7      D
Hay que poner ingredientes
      F#7      Bm
Para los dientes y el corazón

ESTRIBILLO

G      F#7      Bm
Un poquito de celos esta bien
      F#7      Bm
Un poquito de dudas es mejor
      A7/E      A7      D
Son la sal y pimienta que en la vida
F#7      Bm
Condimentan la pasión
      F#7      Bm
Un poquito de celos esta bien
      F#7      Bm
Un poquito de dudas es mejor
      A7/E   A7      D
Pero justa medida en la cocina
F#      Bm
Sazonándolo al amor         


  Yo sé muy bien que me quieres 
  Y tu sabes que te quiero
  Aunque llueva y aunque truene 
  Le ponemos leña al fuego


  Pero los dos entendemos
  Y sin ponernos de acuerdo
  Que hay que sumar en la dieta
  Una secreta complicidad

 Estribillo

  F#   Bm  x2

  Como decía mi abuela
  En amores no te duermas
  Hay que inventar cada día
  Fantasías y sorpresas

  Con la mejor picardía
  Hay que ponerle poesía
  A este jueguito inocente 
  Que es pan caliente para el amor

  Un poquito de celos
  Te iluminan la mirada
  Son tus ojos cuchillos
  Que me matan por la espalda
   F#
  Un poquito de duda
      G
  Pone mi alma desnuda
      Em
  Pero vuelvo a la vida
      F#7
  Si me miras con ternura

  Todo sobre A/E A7 D D/A   X2

   El amor es un desafió 
   Es tratar de juntar agua de dos ríos

   Repite hasta el final:
   Un poquito de celos esta bien
   Un poquito de dudas es mejor
    (F#   Bm )


ESTO ES TODO SALUDOS ATODA LA GENTE DE HABLA HISPANA 
DESDE PEHUAJO PCIA DE BS AS ARGENTINA DANIEL
DANIEL100680@

            
            
Suggest correction
Creating personal tab
Creating personal tab
You can edit any tab online and save it as your Personal.

You can edit, replace or remove any tab part or add personal notes – all changes will be seen only by you.

Personal tabs can be accessed anytime from any device, even offline.
Learn more »
Give kudos to tab author, rate the tab!
1 2 3 4 5
comments
print report bad tab
guest
Wanna post a correction for this tab? Suggest correction