Oops, an error
Loading. Please wait.

Yo Soy Tu Rio tab

28 views 1 this week
no commentswrite comment
1 2 3 4 5
3 more votes to show rating
add to favorites
×
Save as Personal and add changes to this tab that will be seen only by you. Learn more ›
×
You can save this tab as Personal to edit and correct it or add notes. All changes will be seen only by you. Learn more »
launch autoscroll
font size
0
reset
how to read this tab
guitar tuner
edit
Autoscroll
slow
fast
+/-
esc
set tempo
stop
A CAPELLA

Si quieres beber agua fresca 
yo soy tu río, yo soy tu río, 
si quieres borrar una pena 
yo soy tu río, yo soy tu río, 
si quieres nadar en un cauce 
con el cielo verde de sauces 
si quieres lavarte la cara  
con agua clara yo soy tu río, 
si quieres lavarte la cara  
con agua clara yo soy tu río. 

   SIm
Si quieres bañarte de espuma 
                        FA#7
yo soy tu río, yo soy tu río, 

desnuda en la noche de luna 
                         SIm
yo soy tu río, yo soy tu río, 
   SI7                   MIm
si quieres llegar a buen puerto 
     DO#7              FA#7
te esperan mis brazos abiertos 
   MIm              SIm
no pierdas este desafío 
          FA#7           SIm
yo soy tu río, yo soy tu río. 


           FA#7        SIm 
Ay, ay, ay, ay, cariño mío 
        LA              RE
no sé vivir si no es contigo        
           FA#7       SIm
ay, ay, ay, ay cariño mío 
          MIm        DO#7         FA#7
me llevas preso del revés de tu vestido. 

           FA#7        SIm
Ay, ay, ay, ay, cariño mío 
       LA           RE
mi corazón y mis sentidos 
           FA#7        SIm 
ay, ay, ay, ay, cariño mío                 
         MIm            FA#7           SIm
viajemos juntos hacia el mar yo soy tu río. 

SOLO*

SEGUNDA PARTE CON LOS MISMOS ACORDES DE LA PRIMERA

Si quieres cambiar de paisaje 
yo soy tu río, yo soy tu río, 
comienza conmigo tu viaje 
yo soy tu río, yo soy tu río, 
tendrás un amor en torrentes 
cruzando ciudades y puentes 
por sitios que no has conocido  
yo soy tu río, yo soy tu río. 

Si quieres pescar en mi lecho 
yo soy tu río, yo soy tu río, 
tendrás mi ansiedad al acecho 
yo soy tu río, yo soy tu río, 
y voy a pagarte con creces 
con besos, caricias y peces 
con amaneceres de estío 
yo soy tu río, yo soy tu río.


SOLO

Mario:

--10-9-7-9-------9----12-10~12~10-8-10-------10---14-12-10-12------12-15-14~15~14-12-14---1ra|
-----------11--11---------------------122--12----------------14--14-----------------------   | 
-------------11--------------------------11--------------------14-------------------------3ra|
                                                                                            |X 2
--10-9-7-9-------9----12-10~12~10-8-10-------10---10-12-14-15-14-12--------------------1ra   |
-----------11--11---------------------122--12----------------------15-14-12--11-14-12--      |
-------------11--------------------------11--------------------------------------------3ra   |
 
Kike:

-7-6-4-6-----6---9-7-6-7----7---11-9-7-99------9--12-11-9-11--3ra|
---------8--8------------9-9-------------11--11---------------   |
-----------9--------------9----------------12-----------------5ta|
                                                                |X 2 
-7-6-4-6-----6---9-7-6-7----7--7-9-11-122-11-9-7-6-4-3-6-4----3ra|
---------8--8------------9-9----------------------------------   |
-----------9--------------9-----------------------------------5ta|

Jorge: Fa#7 - Sim - La - Re - Fa#7 - Sim - Mim - Fa#7 - Sim X 2


ESPERO QUE LES GUSTE ESTA MUY FACIL

            
            
Suggest correction
Creating personal tab
Creating personal tab
You can edit any tab online and save it as your Personal.

You can edit, replace or remove any tab part or add personal notes – all changes will be seen only by you.

Personal tabs can be accessed anytime from any device, even offline.
Learn more »
Give kudos to tab author, rate the tab!
1 2 3 4 5
comments
print report bad tab
guest
Wanna post a correction for this tab? Suggest correction