Oops, an error
Loading. Please wait.

Es Mejor tab

91 views 1 this week
no commentswrite comment
1 2 3 4 5
3 more votes to show rating
add to favorites
×
Save as Personal and add changes to this tab that will be seen only by you. Learn more ›
×
You can save this tab as Personal to edit and correct it or add notes. All changes will be seen only by you. Learn more »
launch autoscroll
font size
0
reset
how to read this tab
guitar tuner
edit
Autoscroll
slow
fast
+/-
esc
set tempo
stop
Intro
E|------------------------------------------------------------------|
B|------------------------------------------------------------------|
G|-------0--------------0------------0---------------0--------------|X2
D|----2-----2--------2----2-------4----4----------2-----2-----------|
A|--2---------2---3---------3---5---------5----3------------3-------|
E:------------------------------------------------------------------|

EL verso es el mismo intro

Te alcancé, no se para qué pero lo logré
Me desperté, antes del tiempo que programé
Salí a volar mientras mis piernas se volvían sal
Y aterricé, ya hora se que lo que no está mal

Es mejor
E|---------------------------------|
B|-----------1-----------1---------|
G|-------0---0-------0---0---------|x2
D|----2------2-----2-----4---------|
A|--2--------3---3-------5---------|
E:---------------------------------|


Me extravie
E|----------------------------------------------------------------|
B|----------------------------------------------------------------|
G|-------0--------------0------------0---------------0------------|
D|----2-----2--------2----2-------4----4----------2-----2---------|
A|--2---------2---3---------3---5---------5----3------------3-----|
E:----------------------------------------------------------------|


Me extravié, a dónde luego regresaré
Para buscar, lo que se esconde en el Samara
Arrójame, porque en el viento me siento bien
Me quiero acostar sobre las rayas de tu mesa

Es mejor

Es mejor
E|---------------------------------|
B|-----------1-----------1---------|
G|-------0---0-------0---0---------|x2
D|----2------2-----2-----4---------|
A|--2--------3---3-------5---------|
E:---------------------------------|

G      D
Es mejor
Bm                         G D
Si te acuestas en el corredor
Bm                          G   D
Si me encuentras solo en el balcón
Bm                       G  D
Si despiertas tomando el sol
Bm                        G   D
Si me llamas cuando ya no estoy
Bm
Es mejor
G   D
Es mejor
Bm
Es mejor


Me estacione
E|------------------------------------------------------------------|
B|------------------------------------------------------------------|
G|-------0--------------0------------0---------------0--------------|
D|----2-----2--------2----2-------4----4----------2-----2-----------|
A|--2---------2---3---------3---5---------5----3------------3-------|
E:------------------------------------------------------------------|


Me estacioné, porque en el fondo te sentías mal
No esperaré a que tu piel se vuelva a enfriar
Regálame lo que pasó en el puesto de atrás
Y duérmete mientras yo veo pasar el tren

Es mejor
E|---------------------------------|
B|-----------1-----------1---------|
G|-------0---0-------0---0---------|x2
D|----2------2-----2-----4---------|
A|--2--------3---3-------5---------|
E:---------------------------------|


G      D
Es mejor
Bm                         G D
Si te acuestas en el corredor
Bm                          G   D
Si me encuentras solo en el balcón
Bm                       G  D
Si despiertas tomando el sol
Bm                        G   D
Si me llamas cuando ya no estoy
Bm
Es mejor
G   D
Es mejor
Bm
Es mejor

Em C G7      C
paaa parapara para papa

Em C
Es mejor
G7  C
Es mejor


E|------------------------------------------------------------------|
B|------------------------------------------------------------------|
G|-------0--------------0------------0---------------0--------------|
D|----2-----2--------2----2-------4----4----------2-----2-----------|
A|--2---------2---3---------3---5---------5----3------------3-------|
E:------------------------------------------------------------------|


SE termina en Em

G7M= x54030

            
            
Suggest correction
Creating personal tab
Creating personal tab
You can edit any tab online and save it as your Personal.

You can edit, replace or remove any tab part or add personal notes – all changes will be seen only by you.

Personal tabs can be accessed anytime from any device, even offline.
Learn more »
Give kudos to tab author, rate the tab!
1 2 3 4 5
comments
print report bad tab
guest
Wanna post a correction for this tab? Suggest correction