Oops, an error
Loading. Please wait.

Vida Mafiosa tab

43 views 1 this week
no commentswrite comment
1 2 3 4 5
3 more votes to show rating
add to favorites
×
Save as Personal and add changes to this tab that will be seen only by you. Learn more ›
×
You can save this tab as Personal to edit and correct it or add notes. All changes will be seen only by you. Learn more »
launch autoscroll
font size
0
reset
how to read this tab
guitar tuner
edit
Autoscroll
slow
fast
+/-
esc
set tempo
stop
Aqui esta una rolilla si no le entienden pus vayan a youtube i busquen
a westcostcholo o simplemente busquen a el cris con guitarra i ai esta...xx

     Adorno1
 LA     +     LA2
sentado en un hielera
         LA
y escuchando un corrido
       Adorno2
           +     LA2
Me jale un cuerno de chivo
                  LA
Rodiado de mis amigos
     Adorno2
         +       LA2
Con los versos recordaba
   RE-LA2         LA      ++Adorno3 al final de esto
Todo lo que en vida he sido

     Adorno1
LA      +        LA2
se me calento el terreno
                     LA
me buscaban por mafioso
         Adorno2
           +        LA2
me achacaron varias muertes
                        LA
por la prensa  publicaron
      Adorno2
         +       LA2
y como si fuera poco
       RE-LA2         LA      +++ Adorno4 al final de esto
hasta rifles me hachacaron

Adorno5
   +   RE
me pierdo por temporadas
  LA2                  LA
cuando no hay que dar la cara
      Adorno2
            +         LA2
oscurese y no amanesce
                    LA
si se trata de una chamba
          Adorno2
            +         LA2
yo no tengo quien me empuje
 RE-LA2         LA            +++pueden poner adorno 3 o adorno 4
solito me aviento al agua

Adorno5
   +   RE
me gusta escuchar consejos
   LA2                  LA
pero no me manden nada
       Adorno2
            +         LA2
cuando algo me sale mal
            LA
ami nadie me regaña
    Adorno2
       +            LA2
Me paseo por donde quiera
RE-LA2         LA           +++pueden poner adorno 3 o adorno 4
Con damas y camaradas

  LA        LA2     RE
1-5----------0-------2-----
2-5----------5-------3-----
3-6----------7-------2-----
4-7----------6-------------
5-7----------7-------------
6--------------------------

Adorno 1

E--3--4-4/0--------
B--3--4-4/5--------
G--4--5-5/7-------- ++++kaiz en LA2
D--5--6-6/6--------
A--5--6-6/7--------
E------------------


Adorno 2

E------------------
B------------------
G------------------ ++++ kaiz en LA2
D------------------
A---0-5-6-7--------
E------------------


Adorno 3


E-----------------------
B-----------------------
G-6-5-4-2---------------
D---------4-2-0---------
A---------------4-2-0---
E-----------------------


Adorno 4
E----------------------
B-5-7-5----------------
G------7-6-4----------- +++++Kaiz en la
D------------6/7-------
A----------------------
E----------------------

Adorno5

E-----------------------
B-----------------------
G-----------------------
D-------0--------------- +++++Kaiz en re
A-0-2-4-----------------
E-----------------------

            
            
Suggest correction
Creating personal tab
Creating personal tab
You can edit any tab online and save it as your Personal.

You can edit, replace or remove any tab part or add personal notes – all changes will be seen only by you.

Personal tabs can be accessed anytime from any device, even offline.
Learn more »
Give kudos to tab author, rate the tab!
1 2 3 4 5
comments
print report bad tab
guest
Wanna post a correction for this tab? Suggest correction