Oops, an error
Loading. Please wait.

El Gran Desfile tab

106 views 1 this week
no commentswrite comment
1 2 3 4 5
3 more votes to show rating
add to favorites
×
Save as Personal and add changes to this tab that will be seen only by you. Learn more ›
×
You can save this tab as Personal to edit and correct it or add notes. All changes will be seen only by you. Learn more »
launch autoscroll
font size
0
reset
how to read this tab
guitar tuner
edit
Autoscroll
slow
fast
+/-
esc
set tempo
stop
    E o E   B  A  Gsos Gmsos Cmsos
E|--7---4----7--5---4-----4-----4-------------|
B|--9---5----7--5---4-----4-----5-------------|
G|--9---4----8--6---5-----4-----6-------------|
D|--9---6----9--7---6-----6-----6-------------|
A|--7---7----9--7---6-----6-----4-------------|
E|--7---4----7--5---4-----4-----4-------------|


E|-------7-5-4-------7-5-4-4------4---|
B|-----5-----------5--------5-5-7---7-|
G|-4-4---------4-4--------------------|
D|------------------------------------|
A|------------------------------------|
E|------------------------------------|


E
Al final del día
B
todo se recicla
A                  B
cae y vuelve a empezar.

E
Hay tantos caminos
B
Sin ningún sentido
A                B
es un juego de azar         E|-12-11-9----------------------------|
                            B|---------12-10-9-12-----------------|

A                  B
Ya no tengo que saber
Cm sos               Gmsos
donde se termina el mar
A
preguntas sin respuestas
contra las apuestas
B
no hay una sola verdad.

E
En el gran desfile
B
Todo se divide
A                 B
Y eso me hace pensar.

E
Errores aciertos
B
Dormido o despierto
A                   B
blanco y negro es igual.

A                   B
Ya no tengo que saber
Cm                   Gm sos
donde se termina el mar
A
preguntas sin respuestas
contra las apuestas
D
no hay una sola verdad.

Cm                          Gm sos
Yo nunca quise estar parado ahí
A                              E  Gsos
anclado inmóvil sin poder cambiar
Cm                         Gm sos
ser un Testigo solo ocasional
A
mirando lo que sea
todo desde afuera
B
Siempre en el mismo lugar.

E|-4-4-2-0-2-4-4-4-2-0-2-4-0------|
B|--------------------------------|
G|--------------------------------|
D|--------------------------------|
A|--------------------------------|
E|--------------------------------|

E
Al final del día
B
todo se recicla
A                  B
cae y vuelve a empezar.

E
Hay tantos caminos
B
Sin ningún sentido
A                B
es un juego de azar

A                  B
Ya no tengo que saber
Cm sos               Gmsos
donde se termina el mar
A
preguntas sin respuestas
contra las apuestas
B
no hay una sola verdad.

Cm                          Gm sos
Yo nunca quise estar parado ahí
A                              E G sos
anclado inmóvil sin poder cambiar
Cm                         Gm sos
ser un Testigo solo ocasional
A
mirando lo que sea
todo desde afuera
B
Siempre en el mismo lugar.


E                  Gm sos                  A   B
Ya no me preocupa donde se termina el mar.
E                  Cm sos                  A   B
Al final del día todo vuelve a comenzar.


esta es la 1ª ves que mando una trascripcion...
la verdad me re perdi a la hora d eponer los acordes,
espero que le guste un abrazo ;)

            
            
Suggest correction
Creating personal tab
Creating personal tab
You can edit any tab online and save it as your Personal.

You can edit, replace or remove any tab part or add personal notes – all changes will be seen only by you.

Personal tabs can be accessed anytime from any device, even offline.
Learn more »
Give kudos to tab author, rate the tab!
1 2 3 4 5
comments
print report bad tab
guest
Wanna post a correction for this tab? Suggest correction