Oops, an error
Loading. Please wait.

La Hiena bass

42 views 1 this week
no commentswrite comment
1 2 3 4 5
3 more votes to show rating
add to favorites
×
Save as Personal and add changes to this tab that will be seen only by you. Learn more ›
×
You can save this tab as Personal to edit and correct it or add notes. All changes will be seen only by you. Learn more »
launch autoscroll
font size
0
reset
guitar tuner
edit
Autoscroll
slow
fast
+/-
esc
set tempo
stop
Esta es la versión 1000 vivos de La Hiena en bajo:

 Slide hacia abajo - Slide out
~ Dejar sonar - Let Ring

Intro

G|----------------|----------------|----------------|----------------|
D|------7---------|------6---3-----|------7---------|------8---5-----| x3
A|5---------8-5---|4-----------4---|5---------8-5---|6-----------6---|
E|----------------|----------------|----------------|----------------|

Verso

G|----------------|----------------|----------------|----------------|
D|----------------|----------------|----------------|----------------| x2
A|5-----5---3-5---|----------------|5-----5---3-5---|----------------|
E|----------------|5-----5-3-5-3-5-|----------------|6-----6-8-8-6-8-|

G|----------------|----------------|----------------|----------------|
D|----------------|----------------|----------------|----------------|
A|------------5---|8-8---8---6-8---|------------5-5-|8-8---8---6-8---|
E|6-6---6---6-----|----------------|6-6---6---6-----|----------------|

G|----------------|----------------|----------------|----------------|
D|----------------|----------------|5-5---5---------|5-5---5-----5---|
A|------------5-5-|8-8---8---6-8-8-|----------5-8-8-|----------5-----|
E|6-6---6---6-----|----------------|----------------|----------------|

Coro

G|----------------|----------------|----------------|----------------|
D|----------------|------------3---|----------------|----------------| x2
A|5-5---5-----5---|4-4---4---5---4-|5-5---5-----5---|----------------|
E|----------5-----|--------4-------|----------5-----|6-----6-8-8-6-8-|

G|----------------|----------------|----------------|----------------|
D|------7---------|------6---3-----|------7---------|------8---5-----| x2
A|5---------8-5---|4-----------4---|5---------8-5---|6-----------6---|
E|----------------|----------------|----------------|----------------|

Verso

G|----------------|----------------|----------------|----------------|
D|----------------|----------------|----------------|----------------| x2
A|5-----5---3-5---|----------------|5-----5---3-5---|----------------|
E|----------------|5-----5-3-5-3-5-|----------------|6-----6-8-8-6-8-|

G|----------------|----------------|----------------|----------------|
D|----------------|----------------|----------------|----------------|
A|------------5---|8-8---8---6-8---|------------5-5-|8-8---8---6-8---|
E|6-6---6---6-----|----------------|6-6---6---6-----|----------------|

G|----------------|----------------|----------------|----------------|
D|----------------|----------------|5-5---5---------|5-5---5-----5---|
A|------------5-5-|8-8---8---6-8-8-|----------5-8-8-|----------5-----|
E|6-6---6---6-----|----------------|----------------|----------------|

Coro

G|----------------|----------------|----------------|----------------|
D|----------------|------------3---|----------------|----------------| x2
A|5-5---5-----5---|4-4---4---5---4-|5-5---5-----5---|----------------|
E|----------5-----|--------4-------|----------5-----|6-----6-8-8-6-8-|

Corte

G|----------------|----------------|----------------|----------------|
D|----------------|----------------|----------------|----------------|
A|5--------------|----------------|----------------|----------------|
E|----------------|5--------------|4--------------|3--------------|

G|----------------|----------------|----------------|----------------|
D|----------------|----------------|----------------|----------------|
A|9~--------------|8~--------------|7~--------------|8~--------------|
E|----------------|----------------|----------------|----------------|

G|----------------|----------------|----------------|----------------|
D|----------------|----------------|----------------|----------------| x2
A|5-----5---3-5---|----------------|5-----5---3-5---|----------------|
E|----------------|5-----5-3-5-3-5-|----------------|6-----6-8-8-6-8-|

G|----------------|----------------|----------------|----------------|
D|----------------|----------------|----------------|----------------|
A|------------5---|8-8---8---6-8---|------------5-5-|8-8---8---6-8---|
E|6-6---6---6-----|----------------|6-6---6---6-----|----------------|

G|----------------|----------------|----------------|----------------|
D|----------------|----------------|5-5---5---------|5-5---5-----5---|
A|------------5-5-|8-8---8---6-8-8-|----------5-8-8-|----------5-----|
E|6-6---6---6-----|----------------|----------------|----------------|

Coro

G|----------------|----------------|----------------|----------------|
D|----------------|------------3---|----------------|----------------| x4
A|5-5---5-----5---|4-4---4---5---4-|5-5---5-----5---|----------------|
E|----------5-----|--------4-------|----------5-----|6-----6-8-8-6-8-|

G|----------------|----------------|----------------|----------------|
D|------7---------|------6---3-----|------7---------|------8---5-----| x2
A|5---------8-5---|4-----------4---|5---------8-5---|6-----------6---|
E|----------------|----------------|----------------|----------------|

No estoy seguro si esas son las notas exactas del corte.
Cualquier dud o sugerecia, neoswat@
Larga vida a Los Pericos!!!

            
            
Suggest correction
Creating personal tab
Creating personal tab
You can edit any tab online and save it as your Personal.

You can edit, replace or remove any tab part or add personal notes – all changes will be seen only by you.

Personal tabs can be accessed anytime from any device, even offline.
Learn more »
Give kudos to tab author, rate the tab!
1 2 3 4 5
comments
print report bad tab
guest
Wanna post a correction for this tab? Suggest correction