Oops, an error
Loading. Please wait.

Waitin' chords

197 views 3 this week
no commentswrite comment
1 2 3 4 5
3 more votes to show rating
add to favorites
×
Save as Personal and add changes to this tab that will be seen only by you. Learn more ›
×
You can save this tab as Personal to edit and correct it or add notes. All changes will be seen only by you. Learn more »
launch autoscroll
font size
0
reset
transpose
0
reset
display chords
guitar tuner
edit
Autoscroll
slow
fast
+/-
esc
set tempo
stop
Strumming
There is no strumming pattern for this song yet. and get +5 IQ
Un hermoso tema de los pericos, mutear y darle feel,
en caso de tocarlo con dos guitarra una guitarra
puede tocar el acorde una vez y extenderlo con un flanger
o echo suave o arpegiarlo... para darle intensidad...

ACORDES
      D#       A#       G#       Gm       Cm
E-----6--------6--------4--------10-------8----
A-----8--------6--------4--------11-------8----
D-----8--------7--------5--------12-------8----
G-----8--------8--------6--------12-------10---
B-----X--------X--------X---------X--------X---
E-----X--------X--------X---------X--------X---

D#                      A#
I am waiting for your love,
G#                    A#
leasing faces in my room
D#                      A#
I am waiting for your love
G#                    A#
like looking at the moon, oh, oh

Gm         Cm
Oh, emotional
Gm      Cm
Devotional.

G#
give me a greatest love,
A#
something there is in heaven,
G#
sometime I just can't hide,
A#                         D#
why come we live together now

I am waiting for your love,
we are playing silly game,
I am waiting for your love,
let me standing in the rain, rain, rain

I am waiting for your love...

ESCALA FINAL
E---|-----------------------------------|
B---|-----------------------------------|
G---|--8--7--5-----------------------8--|
D---|-----------8--6--5--------------8--|
A---|--------------------8--6--5-5---6--|
E---|-----------------------------------|

TABS BY Efrencho manuel.
E to X-CHO!
Hi-Fi Tabs Labs.

Mail: efrenchos@
MSN: rammsquake@
Amigos del Jam (FACEBOOK GROUPS)

            
            
Suggest correction
Creating personal tab
Creating personal tab
You can edit any tab online and save it as your Personal.

You can edit, replace or remove any tab part or add personal notes – all changes will be seen only by you.

Personal tabs can be accessed anytime from any device, even offline.
Learn more »
Give kudos to tab author, rate the tab!
1 2 3 4 5
comments
print report bad tab
guest
Wanna post a correction for this tab? Suggest correction