Oops, an error
Loading. Please wait.

Bajo La Rambla tab

version 2
version 2

Whole song

119 views 1 this week
no commentswrite comment
1 2 3 4 5
3 more votes to show rating
add to favorites
×
Save as Personal and add changes to this tab that will be seen only by you. Learn more ›
×
You can save this tab as Personal to edit and correct it or add notes. All changes will be seen only by you. Learn more »
launch autoscroll
font size
0
reset
how to read this tab
guitar tuner
edit
Autoscroll
slow
fast
+/-
esc
set tempo
stop
Intro: G

           G                            D7
Cuando el sol no esta y la tarde cae al fin
         D7
quiero olvidar los momentos
                   G
que en la rambla pasé.


         C           G 
Tu me besabas y me decias
          G       D7                  G    C G
siempre te amaré, siempre seras mi amor.


              Em 
Me encuentro solo...sin un amor
              D 
Me encuentro solo...en la rambla estoy 
              Em      
Me encuentro solo...todos tienen su amor
              D
Me encuentro solo...ya no se que hacer
              Em   D
Me encuentro solo...solo

e------------------------------
b------------------------------
g----------------5-------------
d-----3--5--5/7-------7---5--3-
a--3---------------------------
E------------------------------

       G  
No podre encontrar jamas 
              D7
dos que se amen,
         D7
pues mi corazón 
               G
mucho ha de sufrir 
         C 
Tu me recordaras
         G
que me querías, 
      G
me juraste que 
    D7           G    C    G
de mí siempre serias  


              Em 
Me encuentro solo, sin un amor
              D 
Me encuentro solo, bajo rambla estoy 
              Em
Me encuentro solo, todos tienen su amor
              D
Me encuentro solo, ya no se que hacer
              Em   D
Me encuentro solo, solo

e--------------------------------------------------------
b--------------------------------------------------------
g-----------------5--------------------------------------
d----3--5---5/7-------7---5---3--------3--2--------------
a--3-----------------------------3--5--------5--5--7--7--
E--------------------------------------------------------

e--------------------------------------------------------
b--------------------------------------------------------
g---3----------------------------------------------------
d------5-5---7-8-7-5--8-7-5--8--7--5--3--2---------------
a-------------------------------------------3--2---------
E--------------------------------------------------------

         C           G 
Tu me besabas y me decias
          G       D7                  G    C G
siempre te amaré, siempre seras mi amor.


              Em 
Me encuentro solo, sin un amor
              D 
Me encuentro solo, bajo rambla estoy 
              Em
Me encuentro solo, todos tienen su amor
              D
Me encuentro solo, ya no se que hacer
              Em   D
Me encuentro solo, solo

e------------------------------
b------------------------------
g----------------5-------------
d-----3--5--5/7-------7---5--3-
a--3---------------------------
E------------------------------

            
            
Suggest correction
Creating personal tab
Creating personal tab
You can edit any tab online and save it as your Personal.

You can edit, replace or remove any tab part or add personal notes – all changes will be seen only by you.

Personal tabs can be accessed anytime from any device, even offline.
Learn more »
Give kudos to tab author, rate the tab!
1 2 3 4 5
comments
print report bad tab
guest
Wanna post a correction for this tab? Suggest correction