Oops, an error
Loading. Please wait.

Babilonia tab

version 1
version 1

Whole song

41 views 1 this week
no commentswrite comment
1 2 3 4 5
3 more votes to show rating
add to favorites
×
Save as Personal and add changes to this tab that will be seen only by you. Learn more ›
×
You can save this tab as Personal to edit and correct it or add notes. All changes will be seen only by you. Learn more »
launch autoscroll
font size
0
reset
how to read this tab
guitar tuner
edit
Autoscroll
slow
fast
+/-
esc
set tempo
stop
Intro:

Vete bobo (x4)

Guitarra 1:
  C#5
e|----------|----------------|--|-----------||--||
b|----------|----------------|--|-----------||--||
g|6~~~~~~~--|----------------|--|-----------||--||
d|6~~~~~~~--|----------0h1p0-|x3|-----------||x2||
a|4~~~~~~~--|-0-1-2-2--------|--|-0-1-2-2-0-||--||
E|----------|2---------------|--|2---------2||--||
Guitarra 2:
  C#5
e|----------|----------------|--|-----------||--||
b|----------|----------------|--|-----------||--||
g|6~~~~~~~--|----------------|--|-----------||--||
d|6~~~~~~~--|----------0h1p0-|x3|-----------||x2||
a|4~~~~~~~--|-0-1-2-2--------|--|-0-1-2-2-0-||--||
E|----------|2---------------|--|2---------2||--||
Bajo:
g|----------|----------------|--|-----------||--||
d|----------|----------------|--|-----------||x2||
a|4---------|-0-1-2-----2----|x3|-0-1-2--2--||--||
E|----------|2------------2--|--|2---------2||--||

Verso 1:
Guitarra 1:
(canal derecho)
e|----------------|--|-----------||--||
b|----------------|--|-----------||--||
g|----------------|--|-----------||--||
d|----------0h1p0-|x3|-----------||x2||
a|-0-1-2-2--------|--|-0-1-2-2-0-||--||
E|2---------------|--|2---------2||--||
Guitarra 2:
(canal izquierdo)
e|----------------|--|-----------||--||
b|----------------|--|------10---||--||
g|-----B7---------|x3|--8h9---7b8||--||
d|----------------|--|-----------||x2||
a|----------------|--|-----------||--||
E|----------------|--|-----------||--||
Bajo:
g|----------------|--|-----------||--||
d|----------------|--|-----------||x2||
a|-0-1-2-----2----|x3|-0-1-2--2--||--||
E|2------------2--|--|2---------2||--||

(todo sobre B7)
Algo nena, algo está pasando
cae Babilonia ya
Algo nena, algo está pasando
cae Babilonia ya

Puente:
Guitarra 1:
(canal derecho)
         B7                B7               B7                  B7
e|----------------|--|-----------||--|----------------|--|-----------|--|
b|----------------|--|-----------||--|----------------|--|-----------|--|
g|----------------|--|-----------||--|----------------|--|-----------|--|
d|----------0h1p0-|x3|-----------||x2|----------0h1p0-|x3|-----------|x2|
a|-0-1-2-2--------|--|-0-1-2-2-0-||--|-0-1-2-2--------|--|-0-1-2-2-0-|--|
E|2---------------|--|2---------2||--|2---------------|--|2---------2|--|
Guitarra 2:
(canal izquierdo)
e|----------------|--|----7------||--|-------------------------------|--|
b|----------------|--|----7------||--|-------------------------------|--|
g|-------B7-------|x3|7h8--8--7b8||--|------------FEEDBACK-----------|x2|
d|----------------|--|-----------||x2|-------------------------------|--|
a|----------------|--|-----------||--|-------------------------------|--|
E|----------------|--|-----------||--|-------------------------------|--|
Bajo:
g|----------------|--|-----------||--|----------------|--|-----------|--|
d|----------------|--|-----------||x2|----------------|--|-----------|x2|
a|-0-1-2-----2----|x3|-0-1-2--2--||--|-0-1-2-----2----|x3|-0-1-2--2--|--|
E|2------------2--|--|2---------2||--|2------------2--|--|2---------2|--|

(sobre B7)
guardia la vieja,
guardia con vierja

Verso 2:
(Igual al verso 1)

Guitarra 3:
     Fill 1
e|--------------|
b|7h10-10/12-12-|
g|-------------8|
d|--------------|
a|--------------|
E|--------------|

Algo nena, algo está pasando
cae Babilonia ya (Fill 1)
Algo nena, algo está pasando
cae Babilonia ya

Puente:
(Igual al puente anterior)
Guitarra 3:
     Fill 2           Fill 3
e|----------------|-----------|
b|--10--10--10h12-|12////////4|
g|12--12----------|-----------|
d|----------------|-----------|
a|----------------|-----------|
E|----------------|-----------|


guardia la vieja (fill 2)
guardia con vierja (fill 3)

(silencio)
Vete bobo, vete bobo...

Corte:
(atentos con la modulación)
Guitarra 1:
e|-----------------|--|-----------||--||
b|-----------------|--|-----------||--||
g|-----------------|--|-----------||--||
d|----------2h3p2--|x3|-----------||x2||
a|----2-4-4-------4|--|---2-4-4-2-||--||
E|2-4--------------|--|2-4-------4||--||
Guitarra 2:
e|-----------------|--|-----------||--||
b|-----------------|--|-----------||--||
g|-----------------|--|-----------||--||
d|----------2h3p2--|x3|-----------||x2||
a|----2-4-4-------4|--|---2-4-4-2-||--||
E|2-4--------------|--|2-4-------4||--||


Coda:
Guitarra 1 y 2: Igual

Guitarra 3:
  Fill 4       Fill 5
e|---9-7h9|---------9---|
b|8h9-----|-8-9-8-9-----|
g|--------|-----------11|
d|--------|-------------|
a|--------|-------------|
E|--------|-------------|
Entra el bajo con la modulación:
g|----------------|--|-----------||--||
d|----------------|--|-----------||x2||
a|-2-3-4-----2----|x3|-2-3-4--2--||--||
E|4------------4--|--|4---------4||--||

(guitarras igual)
Algo nena, arde Babilonia
Algo nena, arde Babilonia

Tanto tiempo ha pasado
y vuelve a pasar (fill 4)
Tantas cosas han pasado
y vuelve a pasar (fill 5)

Algo nena, algo está pasando
cae Babilonia ya
Algo nena, algo está pasando
cae Babilonia ya

Fin:
Guitarra 1:
          C#5   B5  G#5          C#5
e|----------|------------------|--------|
b|----------|------------------|--------|
g|----------|6--6---4----------|-6------|
d|----------|6--6---4--6-------|-6------|
a|------4---|4--4---2--6-------|-4------|
E|4-6-7-----|----------4-------|--------|
Guitarra 2:
              C#5   B5  G#5       C#5
e|----------|------------------|--------|
b|----------|------------------|--------|
g|----------|6--6---4----------|-6------|
d|----------|6--6---4--6-------|-6------|
a|----------|4--4---2--6-------|-4------|
E|-------9//|----------4-------|--------|
Bajo:
g|----------|------------------|--------|
d|----------|------------------|--------|
a|------4---|4--4---2----------|-4------|
E|4-6-7-----|----------4-------|--------|


Algunas anotaciones:
-Pongo los canales así saben donde escuchar
 (especialmente los fills medios inaudibles)
-Cuando pongo los fills en guitarra 3 es porque en la mezcla
 hay una tercer guitarra (metida asquerosamente más fuerte)
-Algunos fills del final no los pongo porque no son bajitos y
 se torna más extraño poniendolo
-Las partes rítmicas de la segunda guitarra no es necesario ponerlas
 con el acorde me parece suficiente, el ritmo sale siempre

            
            
Suggest correction
Creating personal tab
Creating personal tab
You can edit any tab online and save it as your Personal.

You can edit, replace or remove any tab part or add personal notes – all changes will be seen only by you.

Personal tabs can be accessed anytime from any device, even offline.
Learn more »
Give kudos to tab author, rate the tab!
1 2 3 4 5
comments
print report bad tab
guest
Wanna post a correction for this tab? Suggest correction